ISO-10303-21;
HEADER;
FILE_DESCRIPTION (( 'STEP AP203' ),
    '1' );
FILE_NAME ('3ede.STEP',
    '2022-07-07T10:32:50',
    ( '' ),
    ( '' ),
    'SwSTEP 2.0',
    'SolidWorks 2019',
    '' );
FILE_SCHEMA (( 'CONFIG_CONTROL_DESIGN' ));
ENDSEC;

DATA;
#1 = LINE ( 'NONE', #156, #69 ) ;
#2 = CARTESIAN_POINT ( 'NONE',  ( -1.250000000000000000, 0.000000000000000000, 252.0000000000000000 ) ) ;
#3 = DIRECTION ( 'NONE',  ( 0.000000000000000000, 0.000000000000000000, 1.000000000000000000 ) ) ;
#4 = APPROVAL_PERSON_ORGANIZATION ( #277, #19, #23 ) ;
#5 = DIRECTION ( 'NONE',  ( 1.000000000000000000, 0.000000000000000000, 0.000000000000000000 ) ) ;
#6 = DIRECTION ( 'NONE',  ( 1.000000000000000000, 0.000000000000000000, -0.000000000000000000 ) ) ;
#7 = EDGE_CURVE ( 'NONE', #138, #246, #76, .T. ) ;
#8 = AXIS2_PLACEMENT_3D ( 'NONE', #121, #169, #259 ) ;
#9 = APPLICATION_CONTEXT ( 'configuration controlled 3d designs of mechanical parts and assemblies' ) ;
#10 = AXIS2_PLACEMENT_3D ( 'NONE', #104, #177, #221 ) ;
#11 = APPROVAL_PERSON_ORGANIZATION ( #238, #46, #29 ) ;
#12 = EDGE_CURVE ( 'NONE', #224, #14, #159, .T. ) ;
#13 = AXIS2_PLACEMENT_3D ( 'NONE', #101, #153, #197 ) ;
#14 = VERTEX_POINT ( 'NONE', #209 ) ;
#15 = SHAPE_DEFINITION_REPRESENTATION ( #274, #16 ) ;
#16 = ADVANCED_BREP_SHAPE_REPRESENTATION ( '3ede', ( #185, #163 ), #146 ) ;
#17 = PERSON_AND_ORGANIZATION_ROLE ( 'creator' ) ;
#18 = ORIENTED_EDGE ( 'NONE', *, *, #281, .T. ) ;
#19 = APPROVAL ( #144, 'NEURÈENÝ' ) ;
#20 = PERSON_AND_ORGANIZATION ( #167, #193 ) ;
#21 = ORIENTED_EDGE ( 'NONE', *, *, #87, .F. ) ;
#22 = AXIS2_PLACEMENT_3D ( 'NONE', #266, #53, #5 ) ;
#23 = APPROVAL_ROLE ( '' ) ;
#24 = FACE_OUTER_BOUND ( 'NONE', #251, .T. ) ;
#25 = DATE_TIME_ROLE ( 'creation_date' ) ;
#26 = DIRECTION ( 'NONE',  ( 0.000000000000000000, 0.000000000000000000, 1.000000000000000000 ) ) ;
#27 = DATE_AND_TIME ( #273, #56 ) ;
#28 = ORIENTED_EDGE ( 'NONE', *, *, #74, .F. ) ;
#29 = APPROVAL_ROLE ( '' ) ;
#30 = DIRECTION ( 'NONE',  ( 0.000000000000000000, -1.000000000000000000, 0.000000000000000000 ) ) ;
#31 = DIRECTION ( 'NONE',  ( 0.000000000000000000, 0.000000000000000000, 1.000000000000000000 ) ) ;
#32 = CARTESIAN_POINT ( 'NONE',  ( -2.500000000000000000, 0.000000000000000000, 0.000000000000000000 ) ) ;
#33 = LINE ( 'NONE', #80, #34 ) ;
#34 = VECTOR ( 'NONE', #178, 1000.000000000000000 ) ;
#35 = DIRECTION ( 'NONE',  ( 0.000000000000000000, 0.000000000000000000, 1.000000000000000000 ) ) ;
#36 = APPLICATION_CONTEXT ( 'configuration controlled 3d designs of mechanical parts and assemblies' ) ;
#37 = EDGE_CURVE ( 'NONE', #160, #246, #239, .T. ) ;
#38 = EDGE_LOOP ( 'NONE', ( #109, #65, #293, #63 ) ) ;
#39 = CC_DESIGN_APPROVAL ( #107, ( #97 ) ) ;
#40 = DIRECTION ( 'NONE',  ( 0.000000000000000000, 0.000000000000000000, 1.000000000000000000 ) ) ;
#41 = VECTOR ( 'NONE', #123, 1000.000000000000000 ) ;
#42 = CYLINDRICAL_SURFACE ( 'NONE', #8, 2.500000000000000000 ) ;
#43 = EDGE_CURVE ( 'NONE', #226, #160, #84, .T. ) ;
#44 = DATE_AND_TIME ( #70, #295 ) ;
#45 = LINE ( 'NONE', #173, #202 ) ;
#46 = APPROVAL ( #48, 'NEURÈENÝ' ) ;
#47 = DIRECTION ( 'NONE',  ( 1.000000000000000000, 0.000000000000000000, -0.000000000000000000 ) ) ;
#48 = APPROVAL_STATUS ( 'not_yet_approved' ) ;
#49 = EDGE_LOOP ( 'NONE', ( #60, #248, #275, #262 ) ) ;
#50 = AXIS2_PLACEMENT_3D ( 'NONE', #171, #260, #47 ) ;
#51 = CYLINDRICAL_SURFACE ( 'NONE', #264, 1.250000000000000000 ) ;
#52 = FACE_OUTER_BOUND ( 'NONE', #162, .T. ) ;
#53 = DIRECTION ( 'NONE',  ( 0.000000000000000000, 0.000000000000000000, 1.000000000000000000 ) ) ;
#54 = EDGE_CURVE ( 'NONE', #204, #184, #106, .T. ) ;
#55 = CARTESIAN_POINT ( 'NONE',  ( 0.000000000000000000, 0.000000000000000000, 0.000000000000000000 ) ) ;
#56 = LOCAL_TIME ( 12, 32, 50.00000000000000000, #234 ) ;
#57 = CARTESIAN_POINT ( 'NONE',  ( 0.000000000000000000, 0.000000000000000000, 2.000000000000000000 ) ) ;
#58 = ORIENTED_EDGE ( 'NONE', *, *, #74, .T. ) ;
#59 = LOCAL_TIME ( 12, 32, 50.00000000000000000, #296 ) ;
#60 = ORIENTED_EDGE ( 'NONE', *, *, #37, .F. ) ;
#61 = EDGE_CURVE ( 'NONE', #14, #224, #289, .T. ) ;
#62 =( LENGTH_UNIT ( ) NAMED_UNIT ( * ) SI_UNIT ( .MILLI., .METRE. ) );
#63 = ORIENTED_EDGE ( 'NONE', *, *, #205, .F. ) ;
#64 = MECHANICAL_CONTEXT ( 'NONE', #9, 'mechanical' ) ;
#65 = ORIENTED_EDGE ( 'NONE', *, *, #281, .F. ) ;
#66 = PERSON_AND_ORGANIZATION_ROLE ( 'design_owner' ) ;
#67 = CARTESIAN_POINT ( 'NONE',  ( 0.000000000000000000, 0.000000000000000000, 252.0000000000000000 ) ) ;
#68 = CARTESIAN_POINT ( 'NONE',  ( 0.000000000000000000, 0.000000000000000000, 252.0000000000000000 ) ) ;
#69 = VECTOR ( 'NONE', #131, 1000.000000000000000 ) ;
#70 = CALENDAR_DATE ( 2022, 7, 7 ) ;
#71 = DIRECTION ( 'NONE',  ( -1.000000000000000000, 0.000000000000000000, 0.000000000000000000 ) ) ;
#72 = APPROVAL_DATE_TIME ( #44, #19 ) ;
#73 = ORIENTED_EDGE ( 'NONE', *, *, #245, .T. ) ;
#74 = EDGE_CURVE ( 'NONE', #160, #226, #129, .T. ) ;
#75 = DIRECTION ( 'NONE',  ( 1.000000000000000000, 0.000000000000000000, 0.000000000000000000 ) ) ;
#76 = CIRCLE ( 'NONE', #237, 2.500000000000000000 ) ;
#77 = CARTESIAN_POINT ( 'NONE',  ( 0.000000000000000000, 0.000000000000000000, 2.200000000000007283 ) ) ;
#78 = DIRECTION ( 'NONE',  ( 1.000000000000000000, 0.000000000000000000, 0.000000000000000000 ) ) ;
#79 = CARTESIAN_POINT ( 'NONE',  ( 0.000000000000000000, 0.000000000000000000, 0.000000000000000000 ) ) ;
#80 = CARTESIAN_POINT ( 'NONE',  ( -1.250000000000000000, 0.000000000000000000, 252.0000000000000000 ) ) ;
#81 = LOCAL_TIME ( 12, 32, 50.00000000000000000, #172 ) ;
#82 = ORIENTED_EDGE ( 'NONE', *, *, #61, .T. ) ;
#83 = ADVANCED_FACE ( 'NONE', ( #228 ), #42, .T. ) ;
#84 = CIRCLE ( 'NONE', #113, 2.500000000000000000 ) ;
#85 = ORIENTED_EDGE ( 'NONE', *, *, #37, .T. ) ;
#86 = AXIS2_PLACEMENT_3D ( 'NONE', #57, #100, #263 ) ;
#87 = EDGE_CURVE ( 'NONE', #14, #204, #45, .T. ) ;
#88 = VERTEX_POINT ( 'NONE', #213 ) ;
#89 = CALENDAR_DATE ( 2022, 7, 7 ) ;
#90 = FACE_BOUND ( 'NONE', #98, .T. ) ;
#91 = AXIS2_PLACEMENT_3D ( 'NONE', #96, #280, #71 ) ;
#92 = EDGE_LOOP ( 'NONE', ( #164, #278 ) ) ;
#93 = ORIENTED_EDGE ( 'NONE', *, *, #198, .T. ) ;
#94 = SECURITY_CLASSIFICATION_LEVEL ( 'unclassified' ) ;
#95 = CLOSED_SHELL ( 'NONE', ( #201, #225, #99, #83, #102, #303, #143, #242, #148 ) ) ;
#96 = CARTESIAN_POINT ( 'NONE',  ( 0.000000000000000000, 0.000000000000000000, 2.000000000000000000 ) ) ;
#97 = PRODUCT_DEFINITION_FORMATION_WITH_SPECIFIED_SOURCE ( 'LIBOVOLNÝ', '', #235, .NOT_KNOWN. ) ;
#98 = EDGE_LOOP ( 'NONE', ( #93, #223 ) ) ;
#99 = ADVANCED_FACE ( 'NONE', ( #24 ), #304, .T. ) ;
#100 = DIRECTION ( 'NONE',  ( -0.000000000000000000, -0.000000000000000000, -1.000000000000000000 ) ) ;
#101 = CARTESIAN_POINT ( 'NONE',  ( -1.450000000000000178, 1.775737858763662163E-16, 2.200000000000007283 ) ) ;
#102 = ADVANCED_FACE ( 'NONE', ( #90, #297 ), #187, .T. ) ;
#103 = AXIS2_PLACEMENT_3D ( 'NONE', #288, #132, #75 ) ;
#104 = CARTESIAN_POINT ( 'NONE',  ( 0.000000000000000000, 0.000000000000000000, 252.0000000000000000 ) ) ;
#105 = FACE_OUTER_BOUND ( 'NONE', #92, .T. ) ;
#106 = CIRCLE ( 'NONE', #290, 0.2000000000000000944 ) ;
#107 = APPROVAL ( #206, 'NEURÈENÝ' ) ;
#108 =( NAMED_UNIT ( * ) SI_UNIT ( $, .STERADIAN. ) SOLID_ANGLE_UNIT ( ) );
#109 = ORIENTED_EDGE ( 'NONE', *, *, #182, .F. ) ;
#110 = ORIENTED_EDGE ( 'NONE', *, *, #54, .F. ) ;
#111 = PERSON_AND_ORGANIZATION_ROLE ( 'classification_officer' ) ;
#112 = ORIENTED_EDGE ( 'NONE', *, *, #61, .F. ) ;
#113 = AXIS2_PLACEMENT_3D ( 'NONE', #299, #215, #233 ) ;
#114 = CARTESIAN_POINT ( 'NONE',  ( 0.000000000000000000, 0.000000000000000000, 2.000000000000000000 ) ) ;
#115 = AXIS2_PLACEMENT_3D ( 'NONE', #285, #126, #219 ) ;
#116 = PRODUCT_RELATED_PRODUCT_CATEGORY ( 'detail', '', ( #235 ) ) ;
#117 = DESIGN_CONTEXT ( 'detailed design', #36, 'design' ) ;
#118 = PERSON_AND_ORGANIZATION ( #167, #193 ) ;
#119 = ORIENTED_EDGE ( 'NONE', *, *, #198, .F. ) ;
#120 = DATE_AND_TIME ( #214, #180 ) ;
#121 = CARTESIAN_POINT ( 'NONE',  ( 0.000000000000000000, 0.000000000000000000, 2.000000000000000000 ) ) ;
#122 = COORDINATED_UNIVERSAL_TIME_OFFSET ( 1, 0, .AHEAD. ) ;
#123 = DIRECTION ( 'NONE',  ( -0.000000000000000000, -0.000000000000000000, -1.000000000000000000 ) ) ;
#124 = TOROIDAL_SURFACE ( 'NONE', #103, 1.450000000000000178, 0.2000000000000000111 ) ;
#125 = DIRECTION ( 'NONE',  ( 1.000000000000000000, 0.000000000000000000, 0.000000000000000000 ) ) ;
#126 = DIRECTION ( 'NONE',  ( -0.000000000000000000, -0.000000000000000000, -1.000000000000000000 ) ) ;
#127 = EDGE_CURVE ( 'NONE', #226, #138, #1, .T. ) ;
#128 = CARTESIAN_POINT ( 'NONE',  ( 2.500000000000000000, 3.061616997868383141E-16, 2.000000000000000000 ) ) ;
#129 = CIRCLE ( 'NONE', #272, 2.500000000000000000 ) ;
#130 = CC_DESIGN_PERSON_AND_ORGANIZATION_ASSIGNMENT ( #210, #111, ( #217 ) ) ;
#131 = DIRECTION ( 'NONE',  ( -0.000000000000000000, -0.000000000000000000, -1.000000000000000000 ) ) ;
#132 = DIRECTION ( 'NONE',  ( 0.000000000000000000, 0.000000000000000000, 1.000000000000000000 ) ) ;
#133 = PRODUCT_DEFINITION ( 'NEZNÁMÝ', '', #97, #117 ) ;
#134 =( NAMED_UNIT ( * ) PLANE_ANGLE_UNIT ( ) SI_UNIT ( $, .RADIAN. ) );
#135 = CIRCLE ( 'NONE', #115, 1.450000000000000178 ) ;
#136 = APPLICATION_PROTOCOL_DEFINITION ( 'international standard', 'config_control_design', 1994, #9 ) ;
#137 = ORIENTED_EDGE ( 'NONE', *, *, #229, .F. ) ;
#138 = VERTEX_POINT ( 'NONE', #32 ) ;
#139 = APPROVAL_PERSON_ORGANIZATION ( #118, #107, #253 ) ;
#140 = COORDINATED_UNIVERSAL_TIME_OFFSET ( 1, 0, .AHEAD. ) ;
#141 = DIRECTION ( 'NONE',  ( 0.000000000000000000, 0.000000000000000000, 1.000000000000000000 ) ) ;
#142 = EDGE_LOOP ( 'NONE', ( #137, #271, #119, #110 ) ) ;
#143 = ADVANCED_FACE ( 'NONE', ( #174 ), #51, .T. ) ;
#144 = APPROVAL_STATUS ( 'not_yet_approved' ) ;
#145 = DIRECTION ( 'NONE',  ( -0.000000000000000000, -0.000000000000000000, -1.000000000000000000 ) ) ;
#146 =( GEOMETRIC_REPRESENTATION_CONTEXT ( 3 ) GLOBAL_UNCERTAINTY_ASSIGNED_CONTEXT ( ( #258 ) ) GLOBAL_UNIT_ASSIGNED_CONTEXT ( ( #62, #134, #108 ) ) REPRESENTATION_CONTEXT ( 'NONE', 'WORKASPACE' ) );
#147 = CARTESIAN_POINT ( 'NONE',  ( 0.000000000000000000, 0.000000000000000000, 0.000000000000000000 ) ) ;
#148 = ADVANCED_FACE ( 'NONE', ( #179 ), #231, .F. ) ;
#149 = PERSON_AND_ORGANIZATION_ROLE ( 'creator' ) ;
#150 = EDGE_LOOP ( 'NONE', ( #21, #188, #294, #211 ) ) ;
#151 = DATE_TIME_ROLE ( 'classification_date' ) ;
#152 = ORIENTED_EDGE ( 'NONE', *, *, #12, .T. ) ;
#153 = DIRECTION ( 'NONE',  ( 1.224646799147353207E-16, 1.000000000000000000, -0.000000000000000000 ) ) ;
#154 = CARTESIAN_POINT ( 'NONE',  ( -2.500000000000000000, 0.000000000000000000, 2.000000000000000000 ) ) ;
#155 = CIRCLE ( 'NONE', #13, 0.2000000000000000944 ) ;
#156 = CARTESIAN_POINT ( 'NONE',  ( -2.500000000000000000, 0.000000000000000000, 2.000000000000000000 ) ) ;
#157 = CC_DESIGN_PERSON_AND_ORGANIZATION_ASSIGNMENT ( #20, #66, ( #235 ) ) ;
#158 = CARTESIAN_POINT ( 'NONE',  ( 0.000000000000000000, 0.000000000000000000, 252.0000000000000000 ) ) ;
#159 = CIRCLE ( 'NONE', #250, 1.250000000000000000 ) ;
#160 = VERTEX_POINT ( 'NONE', #128 ) ;
#161 = AXIS2_PLACEMENT_3D ( 'NONE', #79, #287, #78 ) ;
#162 = EDGE_LOOP ( 'NONE', ( #152, #82 ) ) ;
#163 = AXIS2_PLACEMENT_3D ( 'NONE', #230, #141, #191 ) ;
#164 = ORIENTED_EDGE ( 'NONE', *, *, #7, .F. ) ;
#165 = CC_DESIGN_DATE_AND_TIME_ASSIGNMENT ( #27, #25, ( #133 ) ) ;
#166 = VERTEX_POINT ( 'NONE', #241 ) ;
#167 = PERSON ( 'NEURÈENÝ', 'NEURÈENÝ', 'NEURÈENÝ', ('NEURÈENÝ'), ('NEURÈENÝ'), ('NEURÈENÝ') ) ;
#168 = DIRECTION ( 'NONE',  ( 0.000000000000000000, 0.000000000000000000, 1.000000000000000000 ) ) ;
#169 = DIRECTION ( 'NONE',  ( -0.000000000000000000, -0.000000000000000000, -1.000000000000000000 ) ) ;
#170 = CC_DESIGN_APPROVAL ( #46, ( #217 ) ) ;
#171 = CARTESIAN_POINT ( 'NONE',  ( 0.000000000000000000, 0.000000000000000000, 2.000000000000000000 ) ) ;
#172 = COORDINATED_UNIVERSAL_TIME_OFFSET ( 1, 0, .AHEAD. ) ;
#173 = CARTESIAN_POINT ( 'NONE',  ( 1.250000000000000000, 1.530808498934191571E-16, 252.0000000000000000 ) ) ;
#174 = FACE_OUTER_BOUND ( 'NONE', #150, .T. ) ;
#175 = CIRCLE ( 'NONE', #286, 1.250000000000000000 ) ;
#176 = CC_DESIGN_SECURITY_CLASSIFICATION ( #217, ( #97 ) ) ;
#177 = DIRECTION ( 'NONE',  ( -0.000000000000000000, -0.000000000000000000, -1.000000000000000000 ) ) ;
#178 = DIRECTION ( 'NONE',  ( -0.000000000000000000, -0.000000000000000000, -1.000000000000000000 ) ) ;
#179 = FACE_OUTER_BOUND ( 'NONE', #38, .T. ) ;
#180 = LOCAL_TIME ( 12, 32, 50.00000000000000000, #140 ) ;
#181 = CARTESIAN_POINT ( 'NONE',  ( 2.500000000000000000, 3.061616997868383141E-16, 0.000000000000000000 ) ) ;
#182 = EDGE_CURVE ( 'NONE', #166, #88, #155, .T. ) ;
#183 = CIRCLE ( 'NONE', #22, 1.250000000000000000 ) ;
#184 = VERTEX_POINT ( 'NONE', #240 ) ;
#185 = MANIFOLD_SOLID_BREP ( 'Zaoblit1', #95 ) ;
#186 = APPROVAL_DATE_TIME ( #216, #46 ) ;
#187 = PLANE ( 'NONE',  #50 ) ;
#188 = ORIENTED_EDGE ( 'NONE', *, *, #12, .F. ) ;
#189 = PERSON_AND_ORGANIZATION ( #167, #193 ) ;
#190 = DIRECTION ( 'NONE',  ( 1.000000000000000000, 0.000000000000000000, 0.000000000000000000 ) ) ;
#191 = DIRECTION ( 'NONE',  ( 1.000000000000000000, 0.000000000000000000, 0.000000000000000000 ) ) ;
#192 = DIRECTION ( 'NONE',  ( 1.000000000000000000, 0.000000000000000000, 0.000000000000000000 ) ) ;
#193 = ORGANIZATION ( 'NEURÈENÝ', 'NEURÈENÝ', '' ) ;
#194 = DIRECTION ( 'NONE',  ( 0.000000000000000000, 0.000000000000000000, -1.000000000000000000 ) ) ;
#195 = CYLINDRICAL_SURFACE ( 'NONE', #10, 1.250000000000000000 ) ;
#196 = DIRECTION ( 'NONE',  ( 1.000000000000000000, 0.000000000000000000, -0.000000000000000000 ) ) ;
#197 = DIRECTION ( 'NONE',  ( -1.000000000000000000, 1.224646799147353207E-16, 0.000000000000000000 ) ) ;
#198 = EDGE_CURVE ( 'NONE', #184, #88, #279, .T. ) ;
#199 = DIRECTION ( 'NONE',  ( -1.000000000000000000, 0.000000000000000000, 0.000000000000000000 ) ) ;
#200 = CC_DESIGN_PERSON_AND_ORGANIZATION_ASSIGNMENT ( #212, #302, ( #97 ) ) ;
#201 = ADVANCED_FACE ( 'NONE', ( #284 ), #124, .F. ) ;
#202 = VECTOR ( 'NONE', #145, 1000.000000000000000 ) ;
#203 = CC_DESIGN_APPROVAL ( #19, ( #133 ) ) ;
#204 = VERTEX_POINT ( 'NONE', #291 ) ;
#205 = EDGE_CURVE ( 'NONE', #88, #184, #135, .T. ) ;
#206 = APPROVAL_STATUS ( 'not_yet_approved' ) ;
#207 = DIRECTION ( 'NONE',  ( 1.000000000000000000, 0.000000000000000000, 0.000000000000000000 ) ) ;
#208 = AXIS2_PLACEMENT_3D ( 'NONE', #77, #31, #125 ) ;
#209 = CARTESIAN_POINT ( 'NONE',  ( 1.250000000000000000, 1.530808498934191571E-16, 252.0000000000000000 ) ) ;
#210 = PERSON_AND_ORGANIZATION ( #167, #193 ) ;
#211 = ORIENTED_EDGE ( 'NONE', *, *, #229, .T. ) ;
#212 = PERSON_AND_ORGANIZATION ( #167, #193 ) ;
#213 = CARTESIAN_POINT ( 'NONE',  ( -1.450000000000000178, 1.775737858763662409E-16, 2.000000000000003553 ) ) ;
#214 = CALENDAR_DATE ( 2022, 7, 7 ) ;
#215 = DIRECTION ( 'NONE',  ( 0.000000000000000000, 0.000000000000000000, 1.000000000000000000 ) ) ;
#216 = DATE_AND_TIME ( #261, #81 ) ;
#217 = SECURITY_CLASSIFICATION ( '', '', #94 ) ;
#218 = CARTESIAN_POINT ( 'NONE',  ( 0.000000000000000000, 0.000000000000000000, 252.0000000000000000 ) ) ;
#219 = DIRECTION ( 'NONE',  ( 1.000000000000000000, 0.000000000000000000, 0.000000000000000000 ) ) ;
#220 = FACE_OUTER_BOUND ( 'NONE', #283, .T. ) ;
#221 = DIRECTION ( 'NONE',  ( -1.000000000000000000, 0.000000000000000000, 0.000000000000000000 ) ) ;
#222 = PLANE ( 'NONE',  #292 ) ;
#223 = ORIENTED_EDGE ( 'NONE', *, *, #205, .T. ) ;
#224 = VERTEX_POINT ( 'NONE', #2 ) ;
#225 = ADVANCED_FACE ( 'NONE', ( #220 ), #195, .T. ) ;
#226 = VERTEX_POINT ( 'NONE', #154 ) ;
#227 = PERSON_AND_ORGANIZATION ( #167, #193 ) ;
#228 = FACE_OUTER_BOUND ( 'NONE', #49, .T. ) ;
#229 = EDGE_CURVE ( 'NONE', #166, #204, #175, .T. ) ;
#230 = CARTESIAN_POINT ( 'NONE',  ( 0.000000000000000000, 0.000000000000000000, 0.000000000000000000 ) ) ;
#231 = TOROIDAL_SURFACE ( 'NONE', #208, 1.450000000000000178, 0.2000000000000000111 ) ;
#232 = ORIENTED_EDGE ( 'NONE', *, *, #127, .F. ) ;
#233 = DIRECTION ( 'NONE',  ( 1.000000000000000000, 0.000000000000000000, 0.000000000000000000 ) ) ;
#234 = COORDINATED_UNIVERSAL_TIME_OFFSET ( 1, 0, .AHEAD. ) ;
#235 = PRODUCT ( '3ede', '3ede', '', ( #64 ) ) ;
#236 = ORIENTED_EDGE ( 'NONE', *, *, #87, .T. ) ;
#237 = AXIS2_PLACEMENT_3D ( 'NONE', #147, #301, #190 ) ;
#238 = PERSON_AND_ORGANIZATION ( #167, #193 ) ;
#239 = LINE ( 'NONE', #254, #41 ) ;
#240 = CARTESIAN_POINT ( 'NONE',  ( 1.450000000000000178, 0.000000000000000000, 2.000000000000003553 ) ) ;
#241 = CARTESIAN_POINT ( 'NONE',  ( -1.250000000000000000, 0.000000000000000000, 2.200000000000007283 ) ) ;
#242 = ADVANCED_FACE ( 'NONE', ( #52 ), #222, .T. ) ;
#243 = DIRECTION ( 'NONE',  ( 0.000000000000000000, 0.000000000000000000, 1.000000000000000000 ) ) ;
#244 = DIRECTION ( 'NONE',  ( -0.000000000000000000, -0.000000000000000000, -1.000000000000000000 ) ) ;
#245 = EDGE_CURVE ( 'NONE', #246, #138, #306, .T. ) ;
#246 = VERTEX_POINT ( 'NONE', #181 ) ;
#247 = EDGE_LOOP ( 'NONE', ( #276, #58 ) ) ;
#248 = ORIENTED_EDGE ( 'NONE', *, *, #43, .F. ) ;
#249 = EDGE_CURVE ( 'NONE', #224, #166, #33, .T. ) ;
#250 = AXIS2_PLACEMENT_3D ( 'NONE', #67, #168, #192 ) ;
#251 = EDGE_LOOP ( 'NONE', ( #28, #85, #73, #232 ) ) ;
#252 = ORIENTED_EDGE ( 'NONE', *, *, #249, .F. ) ;
#253 = APPROVAL_ROLE ( '' ) ;
#254 = CARTESIAN_POINT ( 'NONE',  ( 2.500000000000000000, 3.061616997868383141E-16, 2.000000000000000000 ) ) ;
#255 = DIRECTION ( 'NONE',  ( 1.000000000000000000, 0.000000000000000000, 0.000000000000000000 ) ) ;
#256 = CC_DESIGN_DATE_AND_TIME_ASSIGNMENT ( #300, #151, ( #217 ) ) ;
#257 = AXIS2_PLACEMENT_3D ( 'NONE', #68, #40, #207 ) ;
#258 = UNCERTAINTY_MEASURE_WITH_UNIT (LENGTH_MEASURE( 1.000000000000000082E-05 ), #62, 'distance_accuracy_value', 'NONE');
#259 = DIRECTION ( 'NONE',  ( -1.000000000000000000, 0.000000000000000000, 0.000000000000000000 ) ) ;
#260 = DIRECTION ( 'NONE',  ( 0.000000000000000000, 0.000000000000000000, 1.000000000000000000 ) ) ;
#261 = CALENDAR_DATE ( 2022, 7, 7 ) ;
#262 = ORIENTED_EDGE ( 'NONE', *, *, #7, .T. ) ;
#263 = DIRECTION ( 'NONE',  ( 1.000000000000000000, 0.000000000000000000, 0.000000000000000000 ) ) ;
#264 = AXIS2_PLACEMENT_3D ( 'NONE', #218, #244, #199 ) ;
#265 = DIRECTION ( 'NONE',  ( 1.000000000000000000, 0.000000000000000000, 0.000000000000000000 ) ) ;
#266 = CARTESIAN_POINT ( 'NONE',  ( 0.000000000000000000, 0.000000000000000000, 2.200000000000007283 ) ) ;
#267 = PLANE ( 'NONE',  #268 ) ;
#268 = AXIS2_PLACEMENT_3D ( 'NONE', #55, #35, #6 ) ;
#269 = CARTESIAN_POINT ( 'NONE',  ( 0.000000000000000000, 0.000000000000000000, 2.200000000000007283 ) ) ;
#270 = CC_DESIGN_PERSON_AND_ORGANIZATION_ASSIGNMENT ( #189, #149, ( #133 ) ) ;
#271 = ORIENTED_EDGE ( 'NONE', *, *, #182, .T. ) ;
#272 = AXIS2_PLACEMENT_3D ( 'NONE', #114, #26, #255 ) ;
#273 = CALENDAR_DATE ( 2022, 7, 7 ) ;
#274 = PRODUCT_DEFINITION_SHAPE ( 'NONE', 'NONE',  #133 ) ;
#275 = ORIENTED_EDGE ( 'NONE', *, *, #127, .T. ) ;
#276 = ORIENTED_EDGE ( 'NONE', *, *, #43, .T. ) ;
#277 = PERSON_AND_ORGANIZATION ( #167, #193 ) ;
#278 = ORIENTED_EDGE ( 'NONE', *, *, #245, .F. ) ;
#279 = CIRCLE ( 'NONE', #86, 1.450000000000000178 ) ;
#280 = DIRECTION ( 'NONE',  ( -0.000000000000000000, -0.000000000000000000, -1.000000000000000000 ) ) ;
#281 = EDGE_CURVE ( 'NONE', #204, #166, #183, .T. ) ;
#282 = APPLICATION_PROTOCOL_DEFINITION ( 'international standard', 'config_control_design', 1994, #36 ) ;
#283 = EDGE_LOOP ( 'NONE', ( #112, #236, #18, #252 ) ) ;
#284 = FACE_OUTER_BOUND ( 'NONE', #142, .T. ) ;
#285 = CARTESIAN_POINT ( 'NONE',  ( 0.000000000000000000, 0.000000000000000000, 2.000000000000000000 ) ) ;
#286 = AXIS2_PLACEMENT_3D ( 'NONE', #269, #243, #265 ) ;
#287 = DIRECTION ( 'NONE',  ( 0.000000000000000000, 0.000000000000000000, 1.000000000000000000 ) ) ;
#288 = CARTESIAN_POINT ( 'NONE',  ( 0.000000000000000000, 0.000000000000000000, 2.200000000000007283 ) ) ;
#289 = CIRCLE ( 'NONE', #257, 1.250000000000000000 ) ;
#290 = AXIS2_PLACEMENT_3D ( 'NONE', #307, #30, #194 ) ;
#291 = CARTESIAN_POINT ( 'NONE',  ( 1.250000000000000000, 1.530808498934191571E-16, 2.200000000000007283 ) ) ;
#292 = AXIS2_PLACEMENT_3D ( 'NONE', #158, #3, #196 ) ;
#293 = ORIENTED_EDGE ( 'NONE', *, *, #54, .T. ) ;
#294 = ORIENTED_EDGE ( 'NONE', *, *, #249, .T. ) ;
#295 = LOCAL_TIME ( 12, 32, 50.00000000000000000, #122 ) ;
#296 = COORDINATED_UNIVERSAL_TIME_OFFSET ( 1, 0, .AHEAD. ) ;
#297 = FACE_OUTER_BOUND ( 'NONE', #247, .T. ) ;
#298 = CC_DESIGN_PERSON_AND_ORGANIZATION_ASSIGNMENT ( #227, #17, ( #97 ) ) ;
#299 = CARTESIAN_POINT ( 'NONE',  ( 0.000000000000000000, 0.000000000000000000, 2.000000000000000000 ) ) ;
#300 = DATE_AND_TIME ( #89, #59 ) ;
#301 = DIRECTION ( 'NONE',  ( 0.000000000000000000, 0.000000000000000000, 1.000000000000000000 ) ) ;
#302 = PERSON_AND_ORGANIZATION_ROLE ( 'design_supplier' ) ;
#303 = ADVANCED_FACE ( 'NONE', ( #105 ), #267, .F. ) ;
#304 = CYLINDRICAL_SURFACE ( 'NONE', #91, 2.500000000000000000 ) ;
#305 = APPROVAL_DATE_TIME ( #120, #107 ) ;
#306 = CIRCLE ( 'NONE', #161, 2.500000000000000000 ) ;
#307 = CARTESIAN_POINT ( 'NONE',  ( 1.450000000000000178, 0.000000000000000000, 2.200000000000007283 ) ) ;
ENDSEC;
END-ISO-10303-21;
