ISO-10303-21;
HEADER;
FILE_DESCRIPTION (( 'STEP AP203' ),
    '1' );
FILE_NAME ('43a4.STEP',
    '2022-07-07T10:09:31',
    ( '' ),
    ( '' ),
    'SwSTEP 2.0',
    'SolidWorks 2019',
    '' );
FILE_SCHEMA (( 'CONFIG_CONTROL_DESIGN' ));
ENDSEC;

DATA;
#1 = VERTEX_POINT ( 'NONE', #39 ) ;
#2 = CC_DESIGN_APPROVAL ( #194, ( #287 ) ) ;
#3 = EDGE_CURVE ( 'NONE', #262, #67, #86, .T. ) ;
#4 = AXIS2_PLACEMENT_3D ( 'NONE', #245, #70, #179 ) ;
#5 = ORIENTED_EDGE ( 'NONE', *, *, #224, .T. ) ;
#6 = UNCERTAINTY_MEASURE_WITH_UNIT (LENGTH_MEASURE( 1.000000000000000082E-05 ), #208, 'distance_accuracy_value', 'NONE');
#7 = VERTEX_POINT ( 'NONE', #269 ) ;
#8 = CARTESIAN_POINT ( 'NONE',  ( 3.450000000000000178, 0.000000000000000000, 5.000000000000005329 ) ) ;
#9 = CARTESIAN_POINT ( 'NONE',  ( 0.000000000000000000, 0.000000000000000000, 5.200000000000009948 ) ) ;
#10 = CARTESIAN_POINT ( 'NONE',  ( 3.450000000000000178, 0.000000000000000000, 5.200000000000009948 ) ) ;
#11 = VECTOR ( 'NONE', #132, 1000.000000000000000 ) ;
#12 = FACE_OUTER_BOUND ( 'NONE', #176, .T. ) ;
#13 = CARTESIAN_POINT ( 'NONE',  ( 0.000000000000000000, 0.000000000000000000, 5.000000000000000000 ) ) ;
#14 = PRODUCT ( '43a4', '43a4', '', ( #236 ) ) ;
#15 = ORIENTED_EDGE ( 'NONE', *, *, #235, .F. ) ;
#16 = DIRECTION ( 'NONE',  ( -0.000000000000000000, -0.000000000000000000, -1.000000000000000000 ) ) ;
#17 = DIRECTION ( 'NONE',  ( -1.000000000000000000, 0.000000000000000000, 0.000000000000000000 ) ) ;
#18 = ADVANCED_FACE ( 'NONE', ( #65 ), #33, .F. ) ;
#19 = PLANE ( 'NONE',  #206 ) ;
#20 = AXIS2_PLACEMENT_3D ( 'NONE', #117, #229, #207 ) ;
#21 = TOROIDAL_SURFACE ( 'NONE', #124, 3.450000000000000178, 0.2000000000000000111 ) ;
#22 = PERSON_AND_ORGANIZATION ( #177, #192 ) ;
#23 = APPLICATION_PROTOCOL_DEFINITION ( 'international standard', 'config_control_design', 1994, #63 ) ;
#24 = DATE_AND_TIME ( #215, #105 ) ;
#25 = ADVANCED_FACE ( 'NONE', ( #209 ), #201, .T. ) ;
#26 = CC_DESIGN_APPROVAL ( #264, ( #40 ) ) ;
#27 = EDGE_LOOP ( 'NONE', ( #29, #31 ) ) ;
#28 = COORDINATED_UNIVERSAL_TIME_OFFSET ( 1, 0, .AHEAD. ) ;
#29 = ORIENTED_EDGE ( 'NONE', *, *, #61, .T. ) ;
#30 = PRODUCT_RELATED_PRODUCT_CATEGORY ( 'detail', '', ( #14 ) ) ;
#31 = ORIENTED_EDGE ( 'NONE', *, *, #169, .T. ) ;
#32 = EDGE_CURVE ( 'NONE', #83, #178, #196, .T. ) ;
#33 = TOROIDAL_SURFACE ( 'NONE', #164, 3.450000000000000178, 0.2000000000000000111 ) ;
#34 = ORIENTED_EDGE ( 'NONE', *, *, #150, .F. ) ;
#35 = CARTESIAN_POINT ( 'NONE',  ( -3.250000000000000444, 0.000000000000000000, 205.0000000000000284 ) ) ;
#36 = LINE ( 'NONE', #35, #102 ) ;
#37 = AXIS2_PLACEMENT_3D ( 'NONE', #143, #16, #120 ) ;
#38 = DIRECTION ( 'NONE',  ( 1.000000000000000000, 0.000000000000000000, -0.000000000000000000 ) ) ;
#39 = CARTESIAN_POINT ( 'NONE',  ( -3.250000000000000444, 0.000000000000000000, 205.0000000000000284 ) ) ;
#40 = PRODUCT_DEFINITION ( 'NEZNÁMÝ', '', #287, #214 ) ;
#41 = CARTESIAN_POINT ( 'NONE',  ( 3.250000000000000444, 3.980102097228898231E-16, 205.0000000000000284 ) ) ;
#42 = CARTESIAN_POINT ( 'NONE',  ( -3.450000000000000178, 4.225031457058368824E-16, 5.200000000000009948 ) ) ;
#43 = DIRECTION ( 'NONE',  ( -0.000000000000000000, -0.000000000000000000, -1.000000000000000000 ) ) ;
#44 = CARTESIAN_POINT ( 'NONE',  ( -3.250000000000000444, 0.000000000000000000, 5.200000000000009948 ) ) ;
#45 = DIRECTION ( 'NONE',  ( 1.000000000000000000, 0.000000000000000000, 0.000000000000000000 ) ) ;
#46 = DIRECTION ( 'NONE',  ( -0.000000000000000000, -0.000000000000000000, -1.000000000000000000 ) ) ;
#47 = FACE_OUTER_BOUND ( 'NONE', #175, .T. ) ;
#48 = APPROVAL_STATUS ( 'not_yet_approved' ) ;
#49 = PERSON_AND_ORGANIZATION_ROLE ( 'creator' ) ;
#50 = CIRCLE ( 'NONE', #147, 3.250000000000000444 ) ;
#51 = SHAPE_DEFINITION_REPRESENTATION ( #139, #167 ) ;
#52 = PERSON_AND_ORGANIZATION ( #177, #192 ) ;
#53 = DIRECTION ( 'NONE',  ( 0.000000000000000000, 0.000000000000000000, 1.000000000000000000 ) ) ;
#54 = ADVANCED_FACE ( 'NONE', ( #12 ), #134, .F. ) ;
#55 = ORIENTED_EDGE ( 'NONE', *, *, #75, .F. ) ;
#56 = LOCAL_TIME ( 12, 9, 31.00000000000000000, #279 ) ;
#57 = ORIENTED_EDGE ( 'NONE', *, *, #300, .T. ) ;
#58 = ORIENTED_EDGE ( 'NONE', *, *, #111, .F. ) ;
#59 = ORIENTED_EDGE ( 'NONE', *, *, #277, .T. ) ;
#60 = DIRECTION ( 'NONE',  ( 1.000000000000000000, 0.000000000000000000, 0.000000000000000000 ) ) ;
#61 = EDGE_CURVE ( 'NONE', #262, #221, #69, .T. ) ;
#62 = LINE ( 'NONE', #159, #11 ) ;
#63 = APPLICATION_CONTEXT ( 'configuration controlled 3d designs of mechanical parts and assemblies' ) ;
#64 = CARTESIAN_POINT ( 'NONE',  ( 0.000000000000000000, 0.000000000000000000, 5.200000000000009948 ) ) ;
#65 = FACE_OUTER_BOUND ( 'NONE', #129, .T. ) ;
#66 = DIRECTION ( 'NONE',  ( 0.000000000000000000, 0.000000000000000000, 1.000000000000000000 ) ) ;
#67 = VERTEX_POINT ( 'NONE', #289 ) ;
#68 = CARTESIAN_POINT ( 'NONE',  ( 0.000000000000000000, 0.000000000000000000, 0.000000000000000000 ) ) ;
#69 = CIRCLE ( 'NONE', #237, 6.000000000000000888 ) ;
#70 = DIRECTION ( 'NONE',  ( 0.000000000000000000, 0.000000000000000000, 1.000000000000000000 ) ) ;
#71 = EDGE_CURVE ( 'NONE', #178, #156, #122, .T. ) ;
#72 = APPROVAL_PERSON_ORGANIZATION ( #233, #194, #170 ) ;
#73 = DATE_AND_TIME ( #281, #56 ) ;
#74 = EDGE_CURVE ( 'NONE', #1, #222, #278, .T. ) ;
#75 = EDGE_CURVE ( 'NONE', #1, #83, #36, .T. ) ;
#76 = COORDINATED_UNIVERSAL_TIME_OFFSET ( 1, 0, .AHEAD. ) ;
#77 = APPROVAL_DATE_TIME ( #73, #307 ) ;
#78 = AXIS2_PLACEMENT_3D ( 'NONE', #13, #94, #184 ) ;
#79 = PERSON_AND_ORGANIZATION ( #177, #192 ) ;
#80 = CC_DESIGN_PERSON_AND_ORGANIZATION_ASSIGNMENT ( #171, #257, ( #14 ) ) ;
#81 = AXIS2_PLACEMENT_3D ( 'NONE', #119, #98, #210 ) ;
#82 = ORIENTED_EDGE ( 'NONE', *, *, #74, .F. ) ;
#83 = VERTEX_POINT ( 'NONE', #44 ) ;
#84 = CC_DESIGN_PERSON_AND_ORGANIZATION_ASSIGNMENT ( #305, #49, ( #287 ) ) ;
#85 = AXIS2_PLACEMENT_3D ( 'NONE', #103, #53, #189 ) ;
#86 = LINE ( 'NONE', #183, #291 ) ;
#87 = CC_DESIGN_PERSON_AND_ORGANIZATION_ASSIGNMENT ( #22, #107, ( #180 ) ) ;
#88 = DIRECTION ( 'NONE',  ( 1.000000000000000000, 0.000000000000000000, 0.000000000000000000 ) ) ;
#89 = CARTESIAN_POINT ( 'NONE',  ( 6.000000000000000888, 7.347880794884120722E-16, 5.000000000000000000 ) ) ;
#90 = ORIENTED_EDGE ( 'NONE', *, *, #3, .T. ) ;
#91 = CIRCLE ( 'NONE', #198, 0.1999999999999996503 ) ;
#92 = CARTESIAN_POINT ( 'NONE',  ( -6.000000000000000888, 0.000000000000000000, 5.000000000000000000 ) ) ;
#93 = DIRECTION ( 'NONE',  ( -0.000000000000000000, -0.000000000000000000, -1.000000000000000000 ) ) ;
#94 = DIRECTION ( 'NONE',  ( -0.000000000000000000, -0.000000000000000000, -1.000000000000000000 ) ) ;
#95 = DIRECTION ( 'NONE',  ( 1.000000000000000000, 0.000000000000000000, 0.000000000000000000 ) ) ;
#96 = CYLINDRICAL_SURFACE ( 'NONE', #195, 3.250000000000000444 ) ;
#97 = EDGE_CURVE ( 'NONE', #222, #7, #62, .T. ) ;
#98 = DIRECTION ( 'NONE',  ( 0.000000000000000000, 0.000000000000000000, 1.000000000000000000 ) ) ;
#99 = APPROVAL_STATUS ( 'not_yet_approved' ) ;
#100 = CC_DESIGN_DATE_AND_TIME_ASSIGNMENT ( #24, #193, ( #180 ) ) ;
#101 = DATE_AND_TIME ( #276, #218 ) ;
#102 = VECTOR ( 'NONE', #93, 1000.000000000000000 ) ;
#103 = CARTESIAN_POINT ( 'NONE',  ( 0.000000000000000000, 0.000000000000000000, 0.000000000000000000 ) ) ;
#104 = CIRCLE ( 'NONE', #302, 6.000000000000000888 ) ;
#105 = LOCAL_TIME ( 12, 9, 31.00000000000000000, #28 ) ;
#106 = DATE_AND_TIME ( #123, #294 ) ;
#107 = PERSON_AND_ORGANIZATION_ROLE ( 'classification_officer' ) ;
#108 = APPROVAL_PERSON_ORGANIZATION ( #79, #264, #213 ) ;
#109 = ORIENTED_EDGE ( 'NONE', *, *, #97, .F. ) ;
#110 = ORIENTED_EDGE ( 'NONE', *, *, #256, .F. ) ;
#111 = EDGE_CURVE ( 'NONE', #221, #197, #225, .T. ) ;
#112 = ORIENTED_EDGE ( 'NONE', *, *, #111, .T. ) ;
#113 = ADVANCED_FACE ( 'NONE', ( #142 ), #166, .T. ) ;
#114 = CARTESIAN_POINT ( 'NONE',  ( 6.000000000000000888, 7.347880794884120722E-16, 5.000000000000000000 ) ) ;
#115 = AXIS2_PLACEMENT_3D ( 'NONE', #42, #203, #185 ) ;
#116 = DIRECTION ( 'NONE',  ( 1.000000000000000000, 0.000000000000000000, 0.000000000000000000 ) ) ;
#117 = CARTESIAN_POINT ( 'NONE',  ( 0.000000000000000000, 0.000000000000000000, 0.000000000000000000 ) ) ;
#118 = DIRECTION ( 'NONE',  ( -1.000000000000000000, 0.000000000000000000, 0.000000000000000000 ) ) ;
#119 = CARTESIAN_POINT ( 'NONE',  ( 0.000000000000000000, 0.000000000000000000, 5.200000000000009948 ) ) ;
#120 = DIRECTION ( 'NONE',  ( -1.000000000000000000, 0.000000000000000000, 0.000000000000000000 ) ) ;
#121 = PERSON_AND_ORGANIZATION ( #177, #192 ) ;
#122 = CIRCLE ( 'NONE', #204, 3.450000000000000178 ) ;
#123 = CALENDAR_DATE ( 2022, 7, 7 ) ;
#124 = AXIS2_PLACEMENT_3D ( 'NONE', #205, #182, #45 ) ;
#125 = ORIENTED_EDGE ( 'NONE', *, *, #238, .T. ) ;
#126 = ORIENTED_EDGE ( 'NONE', *, *, #32, .T. ) ;
#127 = ORIENTED_EDGE ( 'NONE', *, *, #169, .F. ) ;
#128 = EDGE_LOOP ( 'NONE', ( #261, #34, #5, #181 ) ) ;
#129 = EDGE_LOOP ( 'NONE', ( #288, #126, #248, #282 ) ) ;
#130 = APPROVAL_PERSON_ORGANIZATION ( #52, #307, #152 ) ;
#131 = CARTESIAN_POINT ( 'NONE',  ( 0.000000000000000000, 0.000000000000000000, 205.0000000000000284 ) ) ;
#132 = DIRECTION ( 'NONE',  ( -0.000000000000000000, -0.000000000000000000, -1.000000000000000000 ) ) ;
#133 = DIRECTION ( 'NONE',  ( 0.000000000000000000, -1.000000000000000000, 0.000000000000000000 ) ) ;
#134 = PLANE ( 'NONE',  #20 ) ;
#135 = FACE_OUTER_BOUND ( 'NONE', #128, .T. ) ;
#136 = ADVANCED_FACE ( 'NONE', ( #47 ), #272, .T. ) ;
#137 = APPLICATION_CONTEXT ( 'configuration controlled 3d designs of mechanical parts and assemblies' ) ;
#138 = EDGE_LOOP ( 'NONE', ( #109, #82, #163, #59 ) ) ;
#139 = PRODUCT_DEFINITION_SHAPE ( 'NONE', 'NONE',  #40 ) ;
#140 = CIRCLE ( 'NONE', #220, 6.000000000000000888 ) ;
#141 = DIRECTION ( 'NONE',  ( 0.000000000000000000, 0.000000000000000000, -1.000000000000000000 ) ) ;
#142 = FACE_OUTER_BOUND ( 'NONE', #219, .T. ) ;
#143 = CARTESIAN_POINT ( 'NONE',  ( 0.000000000000000000, 0.000000000000000000, 205.0000000000000284 ) ) ;
#144 = CC_DESIGN_PERSON_AND_ORGANIZATION_ASSIGNMENT ( #146, #260, ( #287 ) ) ;
#145 = PERSON_AND_ORGANIZATION_ROLE ( 'creator' ) ;
#146 = PERSON_AND_ORGANIZATION ( #177, #192 ) ;
#147 = AXIS2_PLACEMENT_3D ( 'NONE', #64, #232, #211 ) ;
#148 = MANIFOLD_SOLID_BREP ( 'Zaoblit1', #151 ) ;
#149 = CC_DESIGN_APPROVAL ( #307, ( #180 ) ) ;
#150 = EDGE_CURVE ( 'NONE', #7, #83, #50, .T. ) ;
#151 = CLOSED_SHELL ( 'NONE', ( #18, #136, #25, #113, #154, #54, #304, #188, #200 ) ) ;
#152 = APPROVAL_ROLE ( '' ) ;
#153 = EDGE_LOOP ( 'NONE', ( #125, #223 ) ) ;
#154 = ADVANCED_FACE ( 'NONE', ( #246, #160 ), #19, .T. ) ;
#155 = ORIENTED_EDGE ( 'NONE', *, *, #235, .T. ) ;
#156 = VERTEX_POINT ( 'NONE', #8 ) ;
#157 = CARTESIAN_POINT ( 'NONE',  ( 0.000000000000000000, 0.000000000000000000, 5.000000000000000000 ) ) ;
#158 = DIRECTION ( 'NONE',  ( 0.000000000000000000, 0.000000000000000000, 1.000000000000000000 ) ) ;
#159 = CARTESIAN_POINT ( 'NONE',  ( 3.250000000000000444, 3.980102097228898231E-16, 205.0000000000000284 ) ) ;
#160 = FACE_OUTER_BOUND ( 'NONE', #27, .T. ) ;
#161 = CARTESIAN_POINT ( 'NONE',  ( 0.000000000000000000, 0.000000000000000000, 5.000000000000000000 ) ) ;
#162 = FACE_OUTER_BOUND ( 'NONE', #138, .T. ) ;
#163 = ORIENTED_EDGE ( 'NONE', *, *, #75, .T. ) ;
#164 = AXIS2_PLACEMENT_3D ( 'NONE', #9, #265, #95 ) ;
#165 = DIRECTION ( 'NONE',  ( 1.000000000000000000, 0.000000000000000000, 0.000000000000000000 ) ) ;
#166 = CYLINDRICAL_SURFACE ( 'NONE', #172, 6.000000000000000888 ) ;
#167 = ADVANCED_BREP_SHAPE_REPRESENTATION ( '43a4', ( #148, #85 ), #280 ) ;
#168 = CIRCLE ( 'NONE', #239, 3.250000000000000444 ) ;
#169 = EDGE_CURVE ( 'NONE', #221, #262, #104, .T. ) ;
#170 = APPROVAL_ROLE ( '' ) ;
#171 = PERSON_AND_ORGANIZATION ( #177, #192 ) ;
#172 = AXIS2_PLACEMENT_3D ( 'NONE', #254, #231, #17 ) ;
#173 = COORDINATED_UNIVERSAL_TIME_OFFSET ( 1, 0, .AHEAD. ) ;
#174 = DATE_TIME_ROLE ( 'creation_date' ) ;
#175 = EDGE_LOOP ( 'NONE', ( #15, #292, #271, #55 ) ) ;
#176 = EDGE_LOOP ( 'NONE', ( #227, #110 ) ) ;
#177 = PERSON ( 'NEURÈENÝ', 'NEURÈENÝ', 'NEURÈENÝ', ('NEURÈENÝ'), ('NEURÈENÝ'), ('NEURÈENÝ') ) ;
#178 = VERTEX_POINT ( 'NONE', #299 ) ;
#179 = DIRECTION ( 'NONE',  ( 1.000000000000000000, 0.000000000000000000, 0.000000000000000000 ) ) ;
#180 = SECURITY_CLASSIFICATION ( '', '', #234 ) ;
#181 = ORIENTED_EDGE ( 'NONE', *, *, #71, .F. ) ;
#182 = DIRECTION ( 'NONE',  ( 0.000000000000000000, 0.000000000000000000, 1.000000000000000000 ) ) ;
#183 = CARTESIAN_POINT ( 'NONE',  ( -6.000000000000000888, 0.000000000000000000, 5.000000000000000000 ) ) ;
#184 = DIRECTION ( 'NONE',  ( 1.000000000000000000, 0.000000000000000000, 0.000000000000000000 ) ) ;
#185 = DIRECTION ( 'NONE',  ( -1.000000000000000000, 1.224646799147350742E-16, 0.000000000000000000 ) ) ;
#186 = VECTOR ( 'NONE', #46, 1000.000000000000000 ) ;
#187 = CARTESIAN_POINT ( 'NONE',  ( 0.000000000000000000, 0.000000000000000000, 0.000000000000000000 ) ) ;
#188 = ADVANCED_FACE ( 'NONE', ( #255 ), #230, .T. ) ;
#189 = DIRECTION ( 'NONE',  ( 1.000000000000000000, 0.000000000000000000, 0.000000000000000000 ) ) ;
#190 = APPROVAL_STATUS ( 'not_yet_approved' ) ;
#191 = COORDINATED_UNIVERSAL_TIME_OFFSET ( 1, 0, .AHEAD. ) ;
#192 = ORGANIZATION ( 'NEURÈENÝ', 'NEURÈENÝ', '' ) ;
#193 = DATE_TIME_ROLE ( 'classification_date' ) ;
#194 = APPROVAL ( #99, 'NEURÈENÝ' ) ;
#195 = AXIS2_PLACEMENT_3D ( 'NONE', #131, #43, #118 ) ;
#196 = CIRCLE ( 'NONE', #115, 0.2000000000000000944 ) ;
#197 = VERTEX_POINT ( 'NONE', #290 ) ;
#198 = AXIS2_PLACEMENT_3D ( 'NONE', #10, #133, #141 ) ;
#199 = ORIENTED_EDGE ( 'NONE', *, *, #61, .F. ) ;
#200 = ADVANCED_FACE ( 'NONE', ( #135 ), #21, .F. ) ;
#201 = CYLINDRICAL_SURFACE ( 'NONE', #286, 6.000000000000000888 ) ;
#202 =( NAMED_UNIT ( * ) PLANE_ANGLE_UNIT ( ) SI_UNIT ( $, .RADIAN. ) );
#203 = DIRECTION ( 'NONE',  ( 1.224646799147353207E-16, 1.000000000000000000, -0.000000000000000000 ) ) ;
#204 = AXIS2_PLACEMENT_3D ( 'NONE', #157, #296, #88 ) ;
#205 = CARTESIAN_POINT ( 'NONE',  ( 0.000000000000000000, 0.000000000000000000, 5.200000000000009948 ) ) ;
#206 = AXIS2_PLACEMENT_3D ( 'NONE', #249, #297, #38 ) ;
#207 = DIRECTION ( 'NONE',  ( 1.000000000000000000, 0.000000000000000000, -0.000000000000000000 ) ) ;
#208 =( LENGTH_UNIT ( ) NAMED_UNIT ( * ) SI_UNIT ( .MILLI., .METRE. ) );
#209 = FACE_OUTER_BOUND ( 'NONE', #240, .T. ) ;
#210 = DIRECTION ( 'NONE',  ( 1.000000000000000000, 0.000000000000000000, 0.000000000000000000 ) ) ;
#211 = DIRECTION ( 'NONE',  ( 1.000000000000000000, 0.000000000000000000, 0.000000000000000000 ) ) ;
#212 = CIRCLE ( 'NONE', #78, 3.450000000000000178 ) ;
#213 = APPROVAL_ROLE ( '' ) ;
#214 = DESIGN_CONTEXT ( 'detailed design', #137, 'design' ) ;
#215 = CALENDAR_DATE ( 2022, 7, 7 ) ;
#216 = DATE_AND_TIME ( #258, #268 ) ;
#217 =( NAMED_UNIT ( * ) SI_UNIT ( $, .STERADIAN. ) SOLID_ANGLE_UNIT ( ) );
#218 = LOCAL_TIME ( 12, 9, 31.00000000000000000, #173 ) ;
#219 = EDGE_LOOP ( 'NONE', ( #58, #199, #90, #57 ) ) ;
#220 = AXIS2_PLACEMENT_3D ( 'NONE', #68, #252, #116 ) ;
#221 = VERTEX_POINT ( 'NONE', #89 ) ;
#222 = VERTEX_POINT ( 'NONE', #41 ) ;
#223 = ORIENTED_EDGE ( 'NONE', *, *, #71, .T. ) ;
#224 = EDGE_CURVE ( 'NONE', #7, #156, #91, .T. ) ;
#225 = LINE ( 'NONE', #114, #186 ) ;
#226 = DIRECTION ( 'NONE',  ( 0.000000000000000000, 0.000000000000000000, 1.000000000000000000 ) ) ;
#227 = ORIENTED_EDGE ( 'NONE', *, *, #300, .F. ) ;
#228 = DIRECTION ( 'NONE',  ( 1.000000000000000000, 0.000000000000000000, -0.000000000000000000 ) ) ;
#229 = DIRECTION ( 'NONE',  ( 0.000000000000000000, 0.000000000000000000, 1.000000000000000000 ) ) ;
#230 = PLANE ( 'NONE',  #283 ) ;
#231 = DIRECTION ( 'NONE',  ( -0.000000000000000000, -0.000000000000000000, -1.000000000000000000 ) ) ;
#232 = DIRECTION ( 'NONE',  ( 0.000000000000000000, 0.000000000000000000, 1.000000000000000000 ) ) ;
#233 = PERSON_AND_ORGANIZATION ( #177, #192 ) ;
#234 = SECURITY_CLASSIFICATION_LEVEL ( 'unclassified' ) ;
#235 = EDGE_CURVE ( 'NONE', #222, #1, #168, .T. ) ;
#236 = MECHANICAL_CONTEXT ( 'NONE', #63, 'mechanical' ) ;
#237 = AXIS2_PLACEMENT_3D ( 'NONE', #273, #251, #60 ) ;
#238 = EDGE_CURVE ( 'NONE', #156, #178, #212, .T. ) ;
#239 = AXIS2_PLACEMENT_3D ( 'NONE', #270, #293, #165 ) ;
#240 = EDGE_LOOP ( 'NONE', ( #127, #112, #285, #241 ) ) ;
#241 = ORIENTED_EDGE ( 'NONE', *, *, #3, .F. ) ;
#242 = EDGE_LOOP ( 'NONE', ( #266, #155 ) ) ;
#243 = DIRECTION ( 'NONE',  ( -0.000000000000000000, -0.000000000000000000, -1.000000000000000000 ) ) ;
#244 = CC_DESIGN_DATE_AND_TIME_ASSIGNMENT ( #216, #174, ( #40 ) ) ;
#245 = CARTESIAN_POINT ( 'NONE',  ( 0.000000000000000000, 0.000000000000000000, 205.0000000000000284 ) ) ;
#246 = FACE_BOUND ( 'NONE', #153, .T. ) ;
#247 = CIRCLE ( 'NONE', #263, 6.000000000000000888 ) ;
#248 = ORIENTED_EDGE ( 'NONE', *, *, #238, .F. ) ;
#249 = CARTESIAN_POINT ( 'NONE',  ( 0.000000000000000000, 0.000000000000000000, 5.000000000000000000 ) ) ;
#250 = DIRECTION ( 'NONE',  ( -1.000000000000000000, 0.000000000000000000, 0.000000000000000000 ) ) ;
#251 = DIRECTION ( 'NONE',  ( 0.000000000000000000, 0.000000000000000000, 1.000000000000000000 ) ) ;
#252 = DIRECTION ( 'NONE',  ( 0.000000000000000000, 0.000000000000000000, 1.000000000000000000 ) ) ;
#253 = CIRCLE ( 'NONE', #81, 3.250000000000000444 ) ;
#254 = CARTESIAN_POINT ( 'NONE',  ( 0.000000000000000000, 0.000000000000000000, 5.000000000000000000 ) ) ;
#255 = FACE_OUTER_BOUND ( 'NONE', #242, .T. ) ;
#256 = EDGE_CURVE ( 'NONE', #197, #67, #140, .T. ) ;
#257 = PERSON_AND_ORGANIZATION_ROLE ( 'design_owner' ) ;
#258 = CALENDAR_DATE ( 2022, 7, 7 ) ;
#259 = APPROVAL_DATE_TIME ( #106, #194 ) ;
#260 = PERSON_AND_ORGANIZATION_ROLE ( 'design_supplier' ) ;
#261 = ORIENTED_EDGE ( 'NONE', *, *, #32, .F. ) ;
#262 = VERTEX_POINT ( 'NONE', #92 ) ;
#263 = AXIS2_PLACEMENT_3D ( 'NONE', #187, #66, #275 ) ;
#264 = APPROVAL ( #48, 'NEURÈENÝ' ) ;
#265 = DIRECTION ( 'NONE',  ( 0.000000000000000000, 0.000000000000000000, 1.000000000000000000 ) ) ;
#266 = ORIENTED_EDGE ( 'NONE', *, *, #74, .T. ) ;
#267 = CARTESIAN_POINT ( 'NONE',  ( 0.000000000000000000, 0.000000000000000000, 5.000000000000000000 ) ) ;
#268 = LOCAL_TIME ( 12, 9, 31.00000000000000000, #76 ) ;
#269 = CARTESIAN_POINT ( 'NONE',  ( 3.250000000000000444, 3.980102097228898231E-16, 5.200000000000009948 ) ) ;
#270 = CARTESIAN_POINT ( 'NONE',  ( 0.000000000000000000, 0.000000000000000000, 205.0000000000000284 ) ) ;
#271 = ORIENTED_EDGE ( 'NONE', *, *, #150, .T. ) ;
#272 = CYLINDRICAL_SURFACE ( 'NONE', #37, 3.250000000000000444 ) ;
#273 = CARTESIAN_POINT ( 'NONE',  ( 0.000000000000000000, 0.000000000000000000, 5.000000000000000000 ) ) ;
#274 = CARTESIAN_POINT ( 'NONE',  ( 0.000000000000000000, 0.000000000000000000, 205.0000000000000284 ) ) ;
#275 = DIRECTION ( 'NONE',  ( 1.000000000000000000, 0.000000000000000000, 0.000000000000000000 ) ) ;
#276 = CALENDAR_DATE ( 2022, 7, 7 ) ;
#277 = EDGE_CURVE ( 'NONE', #83, #7, #253, .T. ) ;
#278 = CIRCLE ( 'NONE', #4, 3.250000000000000444 ) ;
#279 = COORDINATED_UNIVERSAL_TIME_OFFSET ( 1, 0, .AHEAD. ) ;
#280 =( GEOMETRIC_REPRESENTATION_CONTEXT ( 3 ) GLOBAL_UNCERTAINTY_ASSIGNED_CONTEXT ( ( #6 ) ) GLOBAL_UNIT_ASSIGNED_CONTEXT ( ( #208, #202, #217 ) ) REPRESENTATION_CONTEXT ( 'NONE', 'WORKASPACE' ) );
#281 = CALENDAR_DATE ( 2022, 7, 7 ) ;
#282 = ORIENTED_EDGE ( 'NONE', *, *, #224, .F. ) ;
#283 = AXIS2_PLACEMENT_3D ( 'NONE', #274, #226, #228 ) ;
#284 = CC_DESIGN_PERSON_AND_ORGANIZATION_ASSIGNMENT ( #121, #145, ( #40 ) ) ;
#285 = ORIENTED_EDGE ( 'NONE', *, *, #256, .T. ) ;
#286 = AXIS2_PLACEMENT_3D ( 'NONE', #161, #298, #250 ) ;
#287 = PRODUCT_DEFINITION_FORMATION_WITH_SPECIFIED_SOURCE ( 'LIBOVOLNÝ', '', #14, .NOT_KNOWN. ) ;
#288 = ORIENTED_EDGE ( 'NONE', *, *, #277, .F. ) ;
#289 = CARTESIAN_POINT ( 'NONE',  ( -6.000000000000000888, 0.000000000000000000, 0.000000000000000000 ) ) ;
#290 = CARTESIAN_POINT ( 'NONE',  ( 6.000000000000000888, 7.347880794884120722E-16, 0.000000000000000000 ) ) ;
#291 = VECTOR ( 'NONE', #243, 1000.000000000000000 ) ;
#292 = ORIENTED_EDGE ( 'NONE', *, *, #97, .T. ) ;
#293 = DIRECTION ( 'NONE',  ( 0.000000000000000000, 0.000000000000000000, 1.000000000000000000 ) ) ;
#294 = LOCAL_TIME ( 12, 9, 31.00000000000000000, #191 ) ;
#295 = CC_DESIGN_SECURITY_CLASSIFICATION ( #180, ( #287 ) ) ;
#296 = DIRECTION ( 'NONE',  ( -0.000000000000000000, -0.000000000000000000, -1.000000000000000000 ) ) ;
#297 = DIRECTION ( 'NONE',  ( 0.000000000000000000, 0.000000000000000000, 1.000000000000000000 ) ) ;
#298 = DIRECTION ( 'NONE',  ( -0.000000000000000000, -0.000000000000000000, -1.000000000000000000 ) ) ;
#299 = CARTESIAN_POINT ( 'NONE',  ( -3.450000000000000178, 4.225031457058368824E-16, 5.000000000000005329 ) ) ;
#300 = EDGE_CURVE ( 'NONE', #67, #197, #247, .T. ) ;
#301 = DIRECTION ( 'NONE',  ( 1.000000000000000000, 0.000000000000000000, 0.000000000000000000 ) ) ;
#302 = AXIS2_PLACEMENT_3D ( 'NONE', #267, #158, #301 ) ;
#303 = APPROVAL_DATE_TIME ( #101, #264 ) ;
#304 = ADVANCED_FACE ( 'NONE', ( #162 ), #96, .T. ) ;
#305 = PERSON_AND_ORGANIZATION ( #177, #192 ) ;
#306 = APPLICATION_PROTOCOL_DEFINITION ( 'international standard', 'config_control_design', 1994, #137 ) ;
#307 = APPROVAL ( #190, 'NEURÈENÝ' ) ;
ENDSEC;
END-ISO-10303-21;
