ISO-10303-21;
HEADER;
FILE_DESCRIPTION (( 'STEP AP203' ),
    '1' );
FILE_NAME ('ed56.STEP',
    '2022-07-07T10:05:14',
    ( '' ),
    ( '' ),
    'SwSTEP 2.0',
    'SolidWorks 2019',
    '' );
FILE_SCHEMA (( 'CONFIG_CONTROL_DESIGN' ));
ENDSEC;

DATA;
#1 = COORDINATED_UNIVERSAL_TIME_OFFSET ( 1, 0, .AHEAD. ) ;
#2 = PRODUCT_RELATED_PRODUCT_CATEGORY ( 'detail', '', ( #49 ) ) ;
#3 = VECTOR ( 'NONE', #76, 1000.000000000000000 ) ;
#4 = SHAPE_DEFINITION_REPRESENTATION ( #220, #295 ) ;
#5 = FACE_OUTER_BOUND ( 'NONE', #116, .T. ) ;
#6 = DIRECTION ( 'NONE',  ( 0.000000000000000000, 0.000000000000000000, 1.000000000000000000 ) ) ;
#7 = FACE_OUTER_BOUND ( 'NONE', #278, .T. ) ;
#8 = DIRECTION ( 'NONE',  ( 0.000000000000000000, 0.000000000000000000, 1.000000000000000000 ) ) ;
#9 = PLANE ( 'NONE',  #206 ) ;
#10 = FACE_OUTER_BOUND ( 'NONE', #280, .T. ) ;
#11 = CARTESIAN_POINT ( 'NONE',  ( -6.000000000000000888, 0.000000000000000000, 0.000000000000000000 ) ) ;
#12 = ORIENTED_EDGE ( 'NONE', *, *, #263, .F. ) ;
#13 = EDGE_CURVE ( 'NONE', #299, #67, #152, .T. ) ;
#14 = AXIS2_PLACEMENT_3D ( 'NONE', #164, #193, #260 ) ;
#15 = LINE ( 'NONE', #244, #218 ) ;
#16 = ORIENTED_EDGE ( 'NONE', *, *, #139, .T. ) ;
#17 = APPROVAL_ROLE ( '' ) ;
#18 = ORIENTED_EDGE ( 'NONE', *, *, #13, .T. ) ;
#19 = EDGE_LOOP ( 'NONE', ( #41, #70, #277, #274 ) ) ;
#20 = AXIS2_PLACEMENT_3D ( 'NONE', #82, #192, #294 ) ;
#21 = AXIS2_PLACEMENT_3D ( 'NONE', #145, #79, #241 ) ;
#22 = EDGE_CURVE ( 'NONE', #202, #87, #52, .T. ) ;
#23 = COORDINATED_UNIVERSAL_TIME_OFFSET ( 1, 0, .AHEAD. ) ;
#24 = CC_DESIGN_PERSON_AND_ORGANIZATION_ASSIGNMENT ( #209, #120, ( #93 ) ) ;
#25 = CALENDAR_DATE ( 2022, 7, 7 ) ;
#26 = EDGE_CURVE ( 'NONE', #90, #45, #203, .T. ) ;
#27 = DIRECTION ( 'NONE',  ( 1.000000000000000000, 0.000000000000000000, 0.000000000000000000 ) ) ;
#28 = CYLINDRICAL_SURFACE ( 'NONE', #284, 3.750000000000000000 ) ;
#29 = APPROVAL ( #249, 'NEURÈENÝ' ) ;
#30 = DIRECTION ( 'NONE',  ( -1.000000000000000000, 0.000000000000000000, 0.000000000000000000 ) ) ;
#31 = FACE_OUTER_BOUND ( 'NONE', #133, .T. ) ;
#32 = LINE ( 'NONE', #105, #254 ) ;
#33 = CARTESIAN_POINT ( 'NONE',  ( 6.000000000000000888, 7.347880794884120722E-16, 5.000000000000000000 ) ) ;
#34 = APPLICATION_PROTOCOL_DEFINITION ( 'international standard', 'config_control_design', 1994, #43 ) ;
#35 = AXIS2_PLACEMENT_3D ( 'NONE', #237, #84, #27 ) ;
#36 = ORIENTED_EDGE ( 'NONE', *, *, #115, .F. ) ;
#37 = EDGE_CURVE ( 'NONE', #248, #114, #15, .T. ) ;
#38 = ORIENTED_EDGE ( 'NONE', *, *, #139, .F. ) ;
#39 = ORIENTED_EDGE ( 'NONE', *, *, #26, .T. ) ;
#40 = AXIS2_PLACEMENT_3D ( 'NONE', #129, #101, #123 ) ;
#41 = ORIENTED_EDGE ( 'NONE', *, *, #13, .F. ) ;
#42 = TOROIDAL_SURFACE ( 'NONE', #118, 3.949999999999999734, 0.2000000000000000111 ) ;
#43 = APPLICATION_CONTEXT ( 'configuration controlled 3d designs of mechanical parts and assemblies' ) ;
#44 = CALENDAR_DATE ( 2022, 7, 7 ) ;
#45 = VERTEX_POINT ( 'NONE', #113 ) ;
#46 = CC_DESIGN_APPROVAL ( #29, ( #107 ) ) ;
#47 = CIRCLE ( 'NONE', #35, 3.750000000000000000 ) ;
#48 = APPROVAL_STATUS ( 'not_yet_approved' ) ;
#49 = PRODUCT ( 'ed56', 'ed56', '', ( #268 ) ) ;
#50 = AXIS2_PLACEMENT_3D ( 'NONE', #103, #169, #78 ) ;
#51 = APPROVAL_DATE_TIME ( #230, #29 ) ;
#52 = CIRCLE ( 'NONE', #134, 6.000000000000000888 ) ;
#53 = EDGE_CURVE ( 'NONE', #114, #67, #96, .T. ) ;
#54 = FACE_OUTER_BOUND ( 'NONE', #250, .T. ) ;
#55 = DIRECTION ( 'NONE',  ( -0.000000000000000000, -0.000000000000000000, -1.000000000000000000 ) ) ;
#56 = LINE ( 'NONE', #242, #3 ) ;
#57 = DIRECTION ( 'NONE',  ( 0.000000000000000000, 0.000000000000000000, 1.000000000000000000 ) ) ;
#58 = DIRECTION ( 'NONE',  ( 1.000000000000000000, 0.000000000000000000, 0.000000000000000000 ) ) ;
#59 = ADVANCED_FACE ( 'NONE', ( #5 ), #127, .T. ) ;
#60 = DIRECTION ( 'NONE',  ( -0.000000000000000000, -0.000000000000000000, -1.000000000000000000 ) ) ;
#61 = FACE_OUTER_BOUND ( 'NONE', #19, .T. ) ;
#62 = CC_DESIGN_DATE_AND_TIME_ASSIGNMENT ( #205, #282, ( #93 ) ) ;
#63 = AXIS2_PLACEMENT_3D ( 'NONE', #171, #146, #234 ) ;
#64 = AXIS2_PLACEMENT_3D ( 'NONE', #189, #60, #291 ) ;
#65 = DIRECTION ( 'NONE',  ( 0.000000000000000000, 0.000000000000000000, 1.000000000000000000 ) ) ;
#66 = EDGE_LOOP ( 'NONE', ( #178, #86, #16, #135 ) ) ;
#67 = VERTEX_POINT ( 'NONE', #166 ) ;
#68 =( GEOMETRIC_REPRESENTATION_CONTEXT ( 3 ) GLOBAL_UNCERTAINTY_ASSIGNED_CONTEXT ( ( #165 ) ) GLOBAL_UNIT_ASSIGNED_CONTEXT ( ( #191, #186, #172 ) ) REPRESENTATION_CONTEXT ( 'NONE', 'WORKASPACE' ) );
#69 = PERSON_AND_ORGANIZATION_ROLE ( 'design_owner' ) ;
#70 = ORIENTED_EDGE ( 'NONE', *, *, #185, .F. ) ;
#71 = PERSON_AND_ORGANIZATION ( #160, #253 ) ;
#72 = ADVANCED_FACE ( 'NONE', ( #7 ), #42, .F. ) ;
#73 = PERSON_AND_ORGANIZATION ( #160, #253 ) ;
#74 = PERSON_AND_ORGANIZATION ( #160, #253 ) ;
#75 = CALENDAR_DATE ( 2022, 7, 7 ) ;
#76 = DIRECTION ( 'NONE',  ( -0.000000000000000000, -0.000000000000000000, -1.000000000000000000 ) ) ;
#77 = CARTESIAN_POINT ( 'NONE',  ( 0.000000000000000000, 0.000000000000000000, 255.0000000000000000 ) ) ;
#78 = DIRECTION ( 'NONE',  ( 1.000000000000000000, 0.000000000000000000, 0.000000000000000000 ) ) ;
#79 = DIRECTION ( 'NONE',  ( 0.000000000000000000, 0.000000000000000000, 1.000000000000000000 ) ) ;
#80 = DIRECTION ( 'NONE',  ( 1.000000000000000000, 0.000000000000000000, -0.000000000000000000 ) ) ;
#81 = CC_DESIGN_APPROVAL ( #98, ( #144 ) ) ;
#82 = CARTESIAN_POINT ( 'NONE',  ( -3.949999999999999734, 4.837354856632044071E-16, 5.200000000000009948 ) ) ;
#83 = TOROIDAL_SURFACE ( 'NONE', #21, 3.949999999999999734, 0.2000000000000000111 ) ;
#84 = DIRECTION ( 'NONE',  ( 0.000000000000000000, 0.000000000000000000, 1.000000000000000000 ) ) ;
#85 = CARTESIAN_POINT ( 'NONE',  ( 0.000000000000000000, 0.000000000000000000, 5.200000000000009948 ) ) ;
#86 = ORIENTED_EDGE ( 'NONE', *, *, #240, .F. ) ;
#87 = VERTEX_POINT ( 'NONE', #11 ) ;
#88 = ORIENTED_EDGE ( 'NONE', *, *, #124, .T. ) ;
#89 = VERTEX_POINT ( 'NONE', #214 ) ;
#90 = VERTEX_POINT ( 'NONE', #33 ) ;
#91 = ADVANCED_FACE ( 'NONE', ( #286, #102 ), #9, .T. ) ;
#92 = ORIENTED_EDGE ( 'NONE', *, *, #26, .F. ) ;
#93 = SECURITY_CLASSIFICATION ( '', '', #157 ) ;
#94 = PERSON_AND_ORGANIZATION_ROLE ( 'design_supplier' ) ;
#95 = ORIENTED_EDGE ( 'NONE', *, *, #302, .F. ) ;
#96 = CIRCLE ( 'NONE', #257, 3.750000000000000000 ) ;
#97 = AXIS2_PLACEMENT_3D ( 'NONE', #109, #126, #80 ) ;
#98 = APPROVAL ( #285, 'NEURÈENÝ' ) ;
#99 = CARTESIAN_POINT ( 'NONE',  ( 0.000000000000000000, 0.000000000000000000, 0.000000000000000000 ) ) ;
#100 = DIRECTION ( 'NONE',  ( 1.000000000000000000, 0.000000000000000000, 0.000000000000000000 ) ) ;
#101 = DIRECTION ( 'NONE',  ( 0.000000000000000000, 0.000000000000000000, 1.000000000000000000 ) ) ;
#102 = FACE_OUTER_BOUND ( 'NONE', #298, .T. ) ;
#103 = CARTESIAN_POINT ( 'NONE',  ( 0.000000000000000000, 0.000000000000000000, 5.000000000000000000 ) ) ;
#104 = ADVANCED_FACE ( 'NONE', ( #264 ), #83, .F. ) ;
#105 = CARTESIAN_POINT ( 'NONE',  ( -6.000000000000000888, 0.000000000000000000, 5.000000000000000000 ) ) ;
#106 = PLANE ( 'NONE',  #14 ) ;
#107 = PRODUCT_DEFINITION_FORMATION_WITH_SPECIFIED_SOURCE ( 'LIBOVOLNÝ', '', #49, .NOT_KNOWN. ) ;
#108 = DIRECTION ( 'NONE',  ( 0.000000000000000000, 0.000000000000000000, 1.000000000000000000 ) ) ;
#109 = CARTESIAN_POINT ( 'NONE',  ( 0.000000000000000000, 0.000000000000000000, 255.0000000000000000 ) ) ;
#110 = EDGE_CURVE ( 'NONE', #177, #89, #188, .T. ) ;
#111 = ORIENTED_EDGE ( 'NONE', *, *, #185, .T. ) ;
#112 = CC_DESIGN_PERSON_AND_ORGANIZATION_ASSIGNMENT ( #71, #94, ( #107 ) ) ;
#113 = CARTESIAN_POINT ( 'NONE',  ( -6.000000000000000888, 0.000000000000000000, 5.000000000000000000 ) ) ;
#114 = VERTEX_POINT ( 'NONE', #163 ) ;
#115 = EDGE_CURVE ( 'NONE', #45, #87, #32, .T. ) ;
#116 = EDGE_LOOP ( 'NONE', ( #95, #12, #200, #117 ) ) ;
#117 = ORIENTED_EDGE ( 'NONE', *, *, #229, .T. ) ;
#118 = AXIS2_PLACEMENT_3D ( 'NONE', #212, #261, #100 ) ;
#119 = CC_DESIGN_SECURITY_CLASSIFICATION ( #93, ( #107 ) ) ;
#120 = PERSON_AND_ORGANIZATION_ROLE ( 'classification_officer' ) ;
#121 = APPROVAL_ROLE ( '' ) ;
#122 = FACE_OUTER_BOUND ( 'NONE', #226, .T. ) ;
#123 = DIRECTION ( 'NONE',  ( 1.000000000000000000, 0.000000000000000000, 0.000000000000000000 ) ) ;
#124 = EDGE_CURVE ( 'NONE', #114, #89, #207, .T. ) ;
#125 = DIRECTION ( 'NONE',  ( -0.000000000000000000, -0.000000000000000000, -1.000000000000000000 ) ) ;
#126 = DIRECTION ( 'NONE',  ( 0.000000000000000000, 0.000000000000000000, 1.000000000000000000 ) ) ;
#127 = CYLINDRICAL_SURFACE ( 'NONE', #148, 6.000000000000000888 ) ;
#128 = CARTESIAN_POINT ( 'NONE',  ( 6.000000000000000888, 7.347880794884120722E-16, 0.000000000000000000 ) ) ;
#129 = CARTESIAN_POINT ( 'NONE',  ( 0.000000000000000000, 0.000000000000000000, 0.000000000000000000 ) ) ;
#130 = ORIENTED_EDGE ( 'NONE', *, *, #22, .F. ) ;
#131 = DIRECTION ( 'NONE',  ( 1.000000000000000000, 0.000000000000000000, 0.000000000000000000 ) ) ;
#132 = CIRCLE ( 'NONE', #304, 3.750000000000000000 ) ;
#133 = EDGE_LOOP ( 'NONE', ( #111, #151 ) ) ;
#134 = AXIS2_PLACEMENT_3D ( 'NONE', #296, #223, #174 ) ;
#135 = ORIENTED_EDGE ( 'NONE', *, *, #281, .F. ) ;
#136 = ORIENTED_EDGE ( 'NONE', *, *, #229, .F. ) ;
#137 = CC_DESIGN_DATE_AND_TIME_ASSIGNMENT ( #283, #180, ( #144 ) ) ;
#138 = DESIGN_CONTEXT ( 'detailed design', #182, 'design' ) ;
#139 = EDGE_CURVE ( 'NONE', #67, #177, #187, .T. ) ;
#140 = PERSON_AND_ORGANIZATION ( #160, #253 ) ;
#141 = DIRECTION ( 'NONE',  ( -1.000000000000000000, 0.000000000000000000, 0.000000000000000000 ) ) ;
#142 = DIRECTION ( 'NONE',  ( 1.000000000000000000, 0.000000000000000000, -0.000000000000000000 ) ) ;
#143 = LOCAL_TIME ( 12, 5, 14.00000000000000000, #255 ) ;
#144 = PRODUCT_DEFINITION ( 'NEZNÁMÝ', '', #107, #138 ) ;
#145 = CARTESIAN_POINT ( 'NONE',  ( 0.000000000000000000, 0.000000000000000000, 5.200000000000009948 ) ) ;
#146 = DIRECTION ( 'NONE',  ( 0.000000000000000000, -1.000000000000000000, 0.000000000000000000 ) ) ;
#147 = APPROVAL_PERSON_ORGANIZATION ( #140, #227, #121 ) ;
#148 = AXIS2_PLACEMENT_3D ( 'NONE', #168, #55, #267 ) ;
#149 = DIRECTION ( 'NONE',  ( 1.000000000000000000, 0.000000000000000000, 0.000000000000000000 ) ) ;
#150 = CIRCLE ( 'NONE', #270, 6.000000000000000888 ) ;
#151 = ORIENTED_EDGE ( 'NONE', *, *, #175, .T. ) ;
#152 = LINE ( 'NONE', #181, #287 ) ;
#153 = ORIENTED_EDGE ( 'NONE', *, *, #22, .T. ) ;
#154 = PERSON_AND_ORGANIZATION ( #160, #253 ) ;
#155 = ORIENTED_EDGE ( 'NONE', *, *, #37, .F. ) ;
#156 = EDGE_LOOP ( 'NONE', ( #273, #201 ) ) ;
#157 = SECURITY_CLASSIFICATION_LEVEL ( 'unclassified' ) ;
#158 = PERSON_AND_ORGANIZATION_ROLE ( 'creator' ) ;
#159 = DATE_AND_TIME ( #305, #204 ) ;
#160 = PERSON ( 'NEURÈENÝ', 'NEURÈENÝ', 'NEURÈENÝ', ('NEURÈENÝ'), ('NEURÈENÝ'), ('NEURÈENÝ') ) ;
#161 = APPROVAL_DATE_TIME ( #233, #227 ) ;
#162 = AXIS2_PLACEMENT_3D ( 'NONE', #173, #108, #190 ) ;
#163 = CARTESIAN_POINT ( 'NONE',  ( -3.750000000000000000, 0.000000000000000000, 5.200000000000009948 ) ) ;
#164 = CARTESIAN_POINT ( 'NONE',  ( 0.000000000000000000, 0.000000000000000000, 0.000000000000000000 ) ) ;
#165 = UNCERTAINTY_MEASURE_WITH_UNIT (LENGTH_MEASURE( 1.000000000000000082E-05 ), #191, 'distance_accuracy_value', 'NONE');
#166 = CARTESIAN_POINT ( 'NONE',  ( 3.750000000000000000, 4.592425496802573972E-16, 5.200000000000009948 ) ) ;
#167 = CARTESIAN_POINT ( 'NONE',  ( 0.000000000000000000, 0.000000000000000000, 5.000000000000000000 ) ) ;
#168 = CARTESIAN_POINT ( 'NONE',  ( 0.000000000000000000, 0.000000000000000000, 5.000000000000000000 ) ) ;
#169 = DIRECTION ( 'NONE',  ( -0.000000000000000000, -0.000000000000000000, -1.000000000000000000 ) ) ;
#170 = AXIS2_PLACEMENT_3D ( 'NONE', #167, #8, #58 ) ;
#171 = CARTESIAN_POINT ( 'NONE',  ( 3.949999999999999734, 0.000000000000000000, 5.200000000000009948 ) ) ;
#172 =( NAMED_UNIT ( * ) SI_UNIT ( $, .STERADIAN. ) SOLID_ANGLE_UNIT ( ) );
#173 = CARTESIAN_POINT ( 'NONE',  ( 0.000000000000000000, 0.000000000000000000, 255.0000000000000000 ) ) ;
#174 = DIRECTION ( 'NONE',  ( 1.000000000000000000, 0.000000000000000000, 0.000000000000000000 ) ) ;
#175 = EDGE_CURVE ( 'NONE', #299, #248, #228, .T. ) ;
#176 = ORIENTED_EDGE ( 'NONE', *, *, #110, .F. ) ;
#177 = VERTEX_POINT ( 'NONE', #259 ) ;
#178 = ORIENTED_EDGE ( 'NONE', *, *, #124, .F. ) ;
#179 = ORIENTED_EDGE ( 'NONE', *, *, #302, .T. ) ;
#180 = DATE_TIME_ROLE ( 'creation_date' ) ;
#181 = CARTESIAN_POINT ( 'NONE',  ( 3.750000000000000000, 4.592425496802573972E-16, 255.0000000000000000 ) ) ;
#182 = APPLICATION_CONTEXT ( 'configuration controlled 3d designs of mechanical parts and assemblies' ) ;
#183 = LOCAL_TIME ( 12, 5, 14.00000000000000000, #256 ) ;
#184 = APPLICATION_PROTOCOL_DEFINITION ( 'international standard', 'config_control_design', 1994, #182 ) ;
#185 = EDGE_CURVE ( 'NONE', #248, #299, #47, .T. ) ;
#186 =( NAMED_UNIT ( * ) PLANE_ANGLE_UNIT ( ) SI_UNIT ( $, .RADIAN. ) );
#187 = CIRCLE ( 'NONE', #63, 0.1999999999999996503 ) ;
#188 = CIRCLE ( 'NONE', #64, 3.949999999999999734 ) ;
#189 = CARTESIAN_POINT ( 'NONE',  ( 0.000000000000000000, 0.000000000000000000, 5.000000000000000000 ) ) ;
#190 = DIRECTION ( 'NONE',  ( 1.000000000000000000, 0.000000000000000000, 0.000000000000000000 ) ) ;
#191 =( LENGTH_UNIT ( ) NAMED_UNIT ( * ) SI_UNIT ( .MILLI., .METRE. ) );
#192 = DIRECTION ( 'NONE',  ( 1.224646799147353207E-16, 1.000000000000000000, -0.000000000000000000 ) ) ;
#193 = DIRECTION ( 'NONE',  ( 0.000000000000000000, 0.000000000000000000, 1.000000000000000000 ) ) ;
#194 = LOCAL_TIME ( 12, 5, 14.00000000000000000, #1 ) ;
#195 = ADVANCED_FACE ( 'NONE', ( #54 ), #216, .T. ) ;
#196 = CARTESIAN_POINT ( 'NONE',  ( 0.000000000000000000, 0.000000000000000000, 5.000000000000000000 ) ) ;
#197 = CARTESIAN_POINT ( 'NONE',  ( 0.000000000000000000, 0.000000000000000000, 5.200000000000009948 ) ) ;
#198 = CC_DESIGN_PERSON_AND_ORGANIZATION_ASSIGNMENT ( #74, #69, ( #49 ) ) ;
#199 = ORIENTED_EDGE ( 'NONE', *, *, #175, .F. ) ;
#200 = ORIENTED_EDGE ( 'NONE', *, *, #115, .T. ) ;
#201 = ORIENTED_EDGE ( 'NONE', *, *, #281, .T. ) ;
#202 = VERTEX_POINT ( 'NONE', #128 ) ;
#203 = CIRCLE ( 'NONE', #306, 6.000000000000000888 ) ;
#204 = LOCAL_TIME ( 12, 5, 14.00000000000000000, #231 ) ;
#205 = DATE_AND_TIME ( #25, #276 ) ;
#206 = AXIS2_PLACEMENT_3D ( 'NONE', #293, #57, #142 ) ;
#207 = CIRCLE ( 'NONE', #20, 0.1999999999999996503 ) ;
#208 = AXIS2_PLACEMENT_3D ( 'NONE', #77, #125, #30 ) ;
#209 = PERSON_AND_ORGANIZATION ( #160, #253 ) ;
#210 = PERSON_AND_ORGANIZATION_ROLE ( 'creator' ) ;
#211 = CC_DESIGN_PERSON_AND_ORGANIZATION_ASSIGNMENT ( #258, #210, ( #107 ) ) ;
#212 = CARTESIAN_POINT ( 'NONE',  ( 0.000000000000000000, 0.000000000000000000, 5.200000000000009948 ) ) ;
#213 = PLANE ( 'NONE',  #97 ) ;
#214 = CARTESIAN_POINT ( 'NONE',  ( -3.949999999999999734, 4.837354856632044071E-16, 5.000000000000005329 ) ) ;
#215 = CARTESIAN_POINT ( 'NONE',  ( -3.750000000000000000, 0.000000000000000000, 255.0000000000000000 ) ) ;
#216 = CYLINDRICAL_SURFACE ( 'NONE', #224, 6.000000000000000888 ) ;
#217 = DIRECTION ( 'NONE',  ( 0.000000000000000000, 0.000000000000000000, 1.000000000000000000 ) ) ;
#218 = VECTOR ( 'NONE', #221, 1000.000000000000000 ) ;
#219 = ADVANCED_FACE ( 'NONE', ( #122 ), #269, .T. ) ;
#220 = PRODUCT_DEFINITION_SHAPE ( 'NONE', 'NONE',  #144 ) ;
#221 = DIRECTION ( 'NONE',  ( -0.000000000000000000, -0.000000000000000000, -1.000000000000000000 ) ) ;
#222 = CIRCLE ( 'NONE', #170, 6.000000000000000888 ) ;
#223 = DIRECTION ( 'NONE',  ( 0.000000000000000000, 0.000000000000000000, 1.000000000000000000 ) ) ;
#224 = AXIS2_PLACEMENT_3D ( 'NONE', #196, #243, #141 ) ;
#225 = ORIENTED_EDGE ( 'NONE', *, *, #240, .T. ) ;
#226 = EDGE_LOOP ( 'NONE', ( #199, #18, #225, #155 ) ) ;
#227 = APPROVAL ( #48, 'NEURÈENÝ' ) ;
#228 = CIRCLE ( 'NONE', #162, 3.750000000000000000 ) ;
#229 = EDGE_CURVE ( 'NONE', #87, #202, #150, .T. ) ;
#230 = DATE_AND_TIME ( #44, #183 ) ;
#231 = COORDINATED_UNIVERSAL_TIME_OFFSET ( 1, 0, .AHEAD. ) ;
#232 = CALENDAR_DATE ( 2022, 7, 7 ) ;
#233 = DATE_AND_TIME ( #232, #143 ) ;
#234 = DIRECTION ( 'NONE',  ( 0.000000000000000000, 0.000000000000000000, -1.000000000000000000 ) ) ;
#235 = DIRECTION ( 'NONE',  ( 1.000000000000000000, 0.000000000000000000, 0.000000000000000000 ) ) ;
#236 = APPROVAL_PERSON_ORGANIZATION ( #279, #29, #17 ) ;
#237 = CARTESIAN_POINT ( 'NONE',  ( 0.000000000000000000, 0.000000000000000000, 255.0000000000000000 ) ) ;
#238 = DIRECTION ( 'NONE',  ( 1.000000000000000000, 0.000000000000000000, 0.000000000000000000 ) ) ;
#239 = MANIFOLD_SOLID_BREP ( 'Zaoblit1', #266 ) ;
#240 = EDGE_CURVE ( 'NONE', #67, #114, #132, .T. ) ;
#241 = DIRECTION ( 'NONE',  ( 1.000000000000000000, 0.000000000000000000, 0.000000000000000000 ) ) ;
#242 = CARTESIAN_POINT ( 'NONE',  ( 6.000000000000000888, 7.347880794884120722E-16, 5.000000000000000000 ) ) ;
#243 = DIRECTION ( 'NONE',  ( -0.000000000000000000, -0.000000000000000000, -1.000000000000000000 ) ) ;
#244 = CARTESIAN_POINT ( 'NONE',  ( -3.750000000000000000, 0.000000000000000000, 255.0000000000000000 ) ) ;
#245 = CC_DESIGN_PERSON_AND_ORGANIZATION_ASSIGNMENT ( #154, #158, ( #144 ) ) ;
#246 = DIRECTION ( 'NONE',  ( -0.000000000000000000, -0.000000000000000000, -1.000000000000000000 ) ) ;
#247 = CC_DESIGN_APPROVAL ( #227, ( #93 ) ) ;
#248 = VERTEX_POINT ( 'NONE', #215 ) ;
#249 = APPROVAL_STATUS ( 'not_yet_approved' ) ;
#250 = EDGE_LOOP ( 'NONE', ( #92, #179, #153, #36 ) ) ;
#251 = ORIENTED_EDGE ( 'NONE', *, *, #263, .T. ) ;
#252 = APPROVAL_DATE_TIME ( #159, #98 ) ;
#253 = ORGANIZATION ( 'NEURÈENÝ', 'NEURÈENÝ', '' ) ;
#254 = VECTOR ( 'NONE', #288, 1000.000000000000000 ) ;
#255 = COORDINATED_UNIVERSAL_TIME_OFFSET ( 1, 0, .AHEAD. ) ;
#256 = COORDINATED_UNIVERSAL_TIME_OFFSET ( 1, 0, .AHEAD. ) ;
#257 = AXIS2_PLACEMENT_3D ( 'NONE', #197, #297, #131 ) ;
#258 = PERSON_AND_ORGANIZATION ( #160, #253 ) ;
#259 = CARTESIAN_POINT ( 'NONE',  ( 3.949999999999999734, 0.000000000000000000, 5.000000000000005329 ) ) ;
#260 = DIRECTION ( 'NONE',  ( 1.000000000000000000, 0.000000000000000000, -0.000000000000000000 ) ) ;
#261 = DIRECTION ( 'NONE',  ( 0.000000000000000000, 0.000000000000000000, 1.000000000000000000 ) ) ;
#262 = DIRECTION ( 'NONE',  ( -0.000000000000000000, -0.000000000000000000, -1.000000000000000000 ) ) ;
#263 = EDGE_CURVE ( 'NONE', #45, #90, #222, .T. ) ;
#264 = FACE_OUTER_BOUND ( 'NONE', #66, .T. ) ;
#265 = CARTESIAN_POINT ( 'NONE',  ( 3.750000000000000000, 4.592425496802573972E-16, 255.0000000000000000 ) ) ;
#266 = CLOSED_SHELL ( 'NONE', ( #72, #219, #195, #59, #91, #307, #290, #275, #104 ) ) ;
#267 = DIRECTION ( 'NONE',  ( -1.000000000000000000, 0.000000000000000000, 0.000000000000000000 ) ) ;
#268 = MECHANICAL_CONTEXT ( 'NONE', #43, 'mechanical' ) ;
#269 = CYLINDRICAL_SURFACE ( 'NONE', #208, 3.750000000000000000 ) ;
#270 = AXIS2_PLACEMENT_3D ( 'NONE', #99, #6, #238 ) ;
#271 = APPROVAL_PERSON_ORGANIZATION ( #73, #98, #300 ) ;
#272 = CARTESIAN_POINT ( 'NONE',  ( 0.000000000000000000, 0.000000000000000000, 5.000000000000000000 ) ) ;
#273 = ORIENTED_EDGE ( 'NONE', *, *, #110, .T. ) ;
#274 = ORIENTED_EDGE ( 'NONE', *, *, #53, .T. ) ;
#275 = ADVANCED_FACE ( 'NONE', ( #31 ), #213, .T. ) ;
#276 = LOCAL_TIME ( 12, 5, 14.00000000000000000, #23 ) ;
#277 = ORIENTED_EDGE ( 'NONE', *, *, #37, .T. ) ;
#278 = EDGE_LOOP ( 'NONE', ( #301, #88, #176, #38 ) ) ;
#279 = PERSON_AND_ORGANIZATION ( #160, #253 ) ;
#280 = EDGE_LOOP ( 'NONE', ( #136, #130 ) ) ;
#281 = EDGE_CURVE ( 'NONE', #89, #177, #303, .T. ) ;
#282 = DATE_TIME_ROLE ( 'classification_date' ) ;
#283 = DATE_AND_TIME ( #75, #194 ) ;
#284 = AXIS2_PLACEMENT_3D ( 'NONE', #289, #262, #292 ) ;
#285 = APPROVAL_STATUS ( 'not_yet_approved' ) ;
#286 = FACE_BOUND ( 'NONE', #156, .T. ) ;
#287 = VECTOR ( 'NONE', #246, 1000.000000000000000 ) ;
#288 = DIRECTION ( 'NONE',  ( -0.000000000000000000, -0.000000000000000000, -1.000000000000000000 ) ) ;
#289 = CARTESIAN_POINT ( 'NONE',  ( 0.000000000000000000, 0.000000000000000000, 255.0000000000000000 ) ) ;
#290 = ADVANCED_FACE ( 'NONE', ( #61 ), #28, .T. ) ;
#291 = DIRECTION ( 'NONE',  ( 1.000000000000000000, 0.000000000000000000, 0.000000000000000000 ) ) ;
#292 = DIRECTION ( 'NONE',  ( -1.000000000000000000, 0.000000000000000000, 0.000000000000000000 ) ) ;
#293 = CARTESIAN_POINT ( 'NONE',  ( 0.000000000000000000, 0.000000000000000000, 5.000000000000000000 ) ) ;
#294 = DIRECTION ( 'NONE',  ( -1.000000000000000000, 1.224646799147353454E-16, 0.000000000000000000 ) ) ;
#295 = ADVANCED_BREP_SHAPE_REPRESENTATION ( 'ed56', ( #239, #40 ), #68 ) ;
#296 = CARTESIAN_POINT ( 'NONE',  ( 0.000000000000000000, 0.000000000000000000, 0.000000000000000000 ) ) ;
#297 = DIRECTION ( 'NONE',  ( 0.000000000000000000, 0.000000000000000000, 1.000000000000000000 ) ) ;
#298 = EDGE_LOOP ( 'NONE', ( #251, #39 ) ) ;
#299 = VERTEX_POINT ( 'NONE', #265 ) ;
#300 = APPROVAL_ROLE ( '' ) ;
#301 = ORIENTED_EDGE ( 'NONE', *, *, #53, .F. ) ;
#302 = EDGE_CURVE ( 'NONE', #90, #202, #56, .T. ) ;
#303 = CIRCLE ( 'NONE', #50, 3.949999999999999734 ) ;
#304 = AXIS2_PLACEMENT_3D ( 'NONE', #85, #217, #235 ) ;
#305 = CALENDAR_DATE ( 2022, 7, 7 ) ;
#306 = AXIS2_PLACEMENT_3D ( 'NONE', #272, #65, #149 ) ;
#307 = ADVANCED_FACE ( 'NONE', ( #10 ), #106, .F. ) ;
ENDSEC;
END-ISO-10303-21;
