ISO-10303-21;
HEADER;
FILE_DESCRIPTION (( 'STEP AP203' ),
    '1' );
FILE_NAME ('1dec.STEP',
    '2022-07-07T10:13:24',
    ( '' ),
    ( '' ),
    'SwSTEP 2.0',
    'SolidWorks 2019',
    '' );
FILE_SCHEMA (( 'CONFIG_CONTROL_DESIGN' ));
ENDSEC;

DATA;
#1 = DIRECTION ( 'NONE',  ( 1.000000000000000000, 0.000000000000000000, 0.000000000000000000 ) ) ;
#2 = ORIENTED_EDGE ( 'NONE', *, *, #291, .T. ) ;
#3 = LINE ( 'NONE', #187, #35 ) ;
#4 = LOCAL_TIME ( 12, 13, 24.00000000000000000, #112 ) ;
#5 = CARTESIAN_POINT ( 'NONE',  ( 3.000000000000000444, 3.673940397442060361E-16, 255.0000000000000000 ) ) ;
#6 = LINE ( 'NONE', #103, #207 ) ;
#7 = CC_DESIGN_DATE_AND_TIME_ASSIGNMENT ( #70, #281, ( #164 ) ) ;
#8 = DIRECTION ( 'NONE',  ( 1.000000000000000000, 0.000000000000000000, 0.000000000000000000 ) ) ;
#9 = DIRECTION ( 'NONE',  ( 1.000000000000000000, 0.000000000000000000, -0.000000000000000000 ) ) ;
#10 = CARTESIAN_POINT ( 'NONE',  ( 0.000000000000000000, 0.000000000000000000, 5.000000000000000000 ) ) ;
#11 = CARTESIAN_POINT ( 'NONE',  ( 6.000000000000000888, 7.347880794884120722E-16, 0.000000000000000000 ) ) ;
#12 = CARTESIAN_POINT ( 'NONE',  ( 0.000000000000000000, 0.000000000000000000, 0.000000000000000000 ) ) ;
#13 = AXIS2_PLACEMENT_3D ( 'NONE', #210, #257, #99 ) ;
#14 = APPLICATION_PROTOCOL_DEFINITION ( 'international standard', 'config_control_design', 1994, #167 ) ;
#15 = ORIENTED_EDGE ( 'NONE', *, *, #43, .T. ) ;
#16 = APPROVAL ( #201, 'NEURÈENÝ' ) ;
#17 = PERSON_AND_ORGANIZATION ( #231, #163 ) ;
#18 = ORIENTED_EDGE ( 'NONE', *, *, #301, .T. ) ;
#19 = PERSON_AND_ORGANIZATION ( #231, #163 ) ;
#20 = AXIS2_PLACEMENT_3D ( 'NONE', #82, #267, #265 ) ;
#21 = DIRECTION ( 'NONE',  ( -1.000000000000000000, 0.000000000000000000, 0.000000000000000000 ) ) ;
#22 = ADVANCED_FACE ( 'NONE', ( #57 ), #307, .T. ) ;
#23 = UNCERTAINTY_MEASURE_WITH_UNIT (LENGTH_MEASURE( 1.000000000000000082E-05 ), #135, 'distance_accuracy_value', 'NONE');
#24 = DIRECTION ( 'NONE',  ( 0.000000000000000000, 0.000000000000000000, 1.000000000000000000 ) ) ;
#25 = AXIS2_PLACEMENT_3D ( 'NONE', #115, #24, #189 ) ;
#26 = LINE ( 'NONE', #208, #31 ) ;
#27 = CC_DESIGN_PERSON_AND_ORGANIZATION_ASSIGNMENT ( #45, #88, ( #126 ) ) ;
#28 = SHAPE_DEFINITION_REPRESENTATION ( #233, #274 ) ;
#29 = FACE_OUTER_BOUND ( 'NONE', #305, .T. ) ;
#30 = ORIENTED_EDGE ( 'NONE', *, *, #49, .T. ) ;
#31 = VECTOR ( 'NONE', #263, 1000.000000000000000 ) ;
#32 = DIRECTION ( 'NONE',  ( 1.000000000000000000, 0.000000000000000000, 0.000000000000000000 ) ) ;
#33 = MANIFOLD_SOLID_BREP ( 'Zaoblit1', #78 ) ;
#34 = DIRECTION ( 'NONE',  ( 1.000000000000000000, 0.000000000000000000, 0.000000000000000000 ) ) ;
#35 = VECTOR ( 'NONE', #51, 1000.000000000000000 ) ;
#36 = DIRECTION ( 'NONE',  ( 0.000000000000000000, 0.000000000000000000, 1.000000000000000000 ) ) ;
#37 = LINE ( 'NONE', #245, #204 ) ;
#38 = CC_DESIGN_PERSON_AND_ORGANIZATION_ASSIGNMENT ( #17, #162, ( #164 ) ) ;
#39 = DIRECTION ( 'NONE',  ( 1.000000000000000000, 0.000000000000000000, 0.000000000000000000 ) ) ;
#40 = EDGE_LOOP ( 'NONE', ( #252, #18, #220, #209 ) ) ;
#41 = APPLICATION_PROTOCOL_DEFINITION ( 'international standard', 'config_control_design', 1994, #98 ) ;
#42 = CIRCLE ( 'NONE', #131, 3.200000000000000622 ) ;
#43 = EDGE_CURVE ( 'NONE', #282, #136, #221, .T. ) ;
#44 = APPROVAL_ROLE ( '' ) ;
#45 = PERSON_AND_ORGANIZATION ( #231, #163 ) ;
#46 = ORIENTED_EDGE ( 'NONE', *, *, #140, .T. ) ;
#47 = PERSON_AND_ORGANIZATION ( #231, #163 ) ;
#48 = AXIS2_PLACEMENT_3D ( 'NONE', #232, #259, #119 ) ;
#49 = EDGE_CURVE ( 'NONE', #142, #136, #3, .T. ) ;
#50 = CARTESIAN_POINT ( 'NONE',  ( 0.000000000000000000, 0.000000000000000000, 5.200000000000009948 ) ) ;
#51 = DIRECTION ( 'NONE',  ( -0.000000000000000000, -0.000000000000000000, -1.000000000000000000 ) ) ;
#52 = ORIENTED_EDGE ( 'NONE', *, *, #301, .F. ) ;
#53 = CIRCLE ( 'NONE', #108, 3.000000000000000444 ) ;
#54 = EDGE_CURVE ( 'NONE', #137, #156, #26, .T. ) ;
#55 = LOCAL_TIME ( 12, 13, 24.00000000000000000, #183 ) ;
#56 = CARTESIAN_POINT ( 'NONE',  ( 6.000000000000000888, 7.347880794884120722E-16, 5.000000000000000000 ) ) ;
#57 = FACE_OUTER_BOUND ( 'NONE', #247, .T. ) ;
#58 = AXIS2_PLACEMENT_3D ( 'NONE', #123, #289, #34 ) ;
#59 = DIRECTION ( 'NONE',  ( 1.000000000000000000, 0.000000000000000000, 0.000000000000000000 ) ) ;
#60 = DESIGN_CONTEXT ( 'detailed design', #167, 'design' ) ;
#61 = FACE_OUTER_BOUND ( 'NONE', #230, .T. ) ;
#62 = EDGE_CURVE ( 'NONE', #136, #282, #86, .T. ) ;
#63 = CARTESIAN_POINT ( 'NONE',  ( -3.000000000000000444, 0.000000000000000000, 5.200000000000009948 ) ) ;
#64 = AXIS2_PLACEMENT_3D ( 'NONE', #243, #36, #213 ) ;
#65 = CARTESIAN_POINT ( 'NONE',  ( 3.200000000000000622, 0.000000000000000000, 5.000000000000005329 ) ) ;
#66 = APPROVAL_ROLE ( '' ) ;
#67 = PERSON_AND_ORGANIZATION ( #231, #163 ) ;
#68 = AXIS2_PLACEMENT_3D ( 'NONE', #269, #151, #271 ) ;
#69 = ORIENTED_EDGE ( 'NONE', *, *, #145, .T. ) ;
#70 = DATE_AND_TIME ( #280, #55 ) ;
#71 = EDGE_CURVE ( 'NONE', #94, #137, #240, .T. ) ;
#72 = ORIENTED_EDGE ( 'NONE', *, *, #178, .T. ) ;
#73 = APPROVAL_PERSON_ORGANIZATION ( #255, #217, #179 ) ;
#74 = EDGE_LOOP ( 'NONE', ( #117, #97 ) ) ;
#75 = DIRECTION ( 'NONE',  ( -0.000000000000000000, -0.000000000000000000, -1.000000000000000000 ) ) ;
#76 = CC_DESIGN_DATE_AND_TIME_ASSIGNMENT ( #248, #251, ( #155 ) ) ;
#77 = CARTESIAN_POINT ( 'NONE',  ( 0.000000000000000000, 0.000000000000000000, 5.200000000000009948 ) ) ;
#78 = CLOSED_SHELL ( 'NONE', ( #124, #84, #120, #22, #182, #249, #270, #190, #275 ) ) ;
#79 = DIRECTION ( 'NONE',  ( 0.000000000000000000, 0.000000000000000000, 1.000000000000000000 ) ) ;
#80 = DIRECTION ( 'NONE',  ( 1.000000000000000000, 0.000000000000000000, 0.000000000000000000 ) ) ;
#81 = AXIS2_PLACEMENT_3D ( 'NONE', #218, #79, #294 ) ;
#82 = CARTESIAN_POINT ( 'NONE',  ( 0.000000000000000000, 0.000000000000000000, 255.0000000000000000 ) ) ;
#83 = CARTESIAN_POINT ( 'NONE',  ( 0.000000000000000000, 0.000000000000000000, 5.200000000000009948 ) ) ;
#84 = ADVANCED_FACE ( 'NONE', ( #285 ), #284, .T. ) ;
#85 = FACE_BOUND ( 'NONE', #185, .T. ) ;
#86 = CIRCLE ( 'NONE', #186, 6.000000000000000888 ) ;
#87 = CC_DESIGN_PERSON_AND_ORGANIZATION_ASSIGNMENT ( #224, #107, ( #126 ) ) ;
#88 = PERSON_AND_ORGANIZATION_ROLE ( 'creator' ) ;
#89 = APPROVAL_DATE_TIME ( #161, #134 ) ;
#90 = AXIS2_PLACEMENT_3D ( 'NONE', #12, #278, #39 ) ;
#91 = COORDINATED_UNIVERSAL_TIME_OFFSET ( 1, 0, .AHEAD. ) ;
#92 = ORIENTED_EDGE ( 'NONE', *, *, #140, .F. ) ;
#93 = EDGE_CURVE ( 'NONE', #156, #95, #256, .T. ) ;
#94 = VERTEX_POINT ( 'NONE', #5 ) ;
#95 = VERTEX_POINT ( 'NONE', #102 ) ;
#96 = VERTEX_POINT ( 'NONE', #56 ) ;
#97 = ORIENTED_EDGE ( 'NONE', *, *, #43, .F. ) ;
#98 = APPLICATION_CONTEXT ( 'configuration controlled 3d designs of mechanical parts and assemblies' ) ;
#99 = DIRECTION ( 'NONE',  ( -1.000000000000000000, 0.000000000000000000, 0.000000000000000000 ) ) ;
#100 = TOROIDAL_SURFACE ( 'NONE', #121, 3.200000000000000622, 0.2000000000000000111 ) ;
#101 = CC_DESIGN_SECURITY_CLASSIFICATION ( #164, ( #126 ) ) ;
#102 = CARTESIAN_POINT ( 'NONE',  ( 3.000000000000000444, 3.673940397442060361E-16, 5.200000000000009948 ) ) ;
#103 = CARTESIAN_POINT ( 'NONE',  ( 3.000000000000000444, 3.673940397442060361E-16, 255.0000000000000000 ) ) ;
#104 = CARTESIAN_POINT ( 'NONE',  ( -3.200000000000000622, 3.918869757271530953E-16, 5.200000000000009948 ) ) ;
#105 = PLANE ( 'NONE',  #81 ) ;
#106 = DIRECTION ( 'NONE',  ( -0.000000000000000000, -0.000000000000000000, -1.000000000000000000 ) ) ;
#107 = PERSON_AND_ORGANIZATION_ROLE ( 'design_supplier' ) ;
#108 = AXIS2_PLACEMENT_3D ( 'NONE', #83, #214, #8 ) ;
#109 = ORIENTED_EDGE ( 'NONE', *, *, #178, .F. ) ;
#110 = CALENDAR_DATE ( 2022, 7, 7 ) ;
#111 = VERTEX_POINT ( 'NONE', #237 ) ;
#112 = COORDINATED_UNIVERSAL_TIME_OFFSET ( 1, 0, .AHEAD. ) ;
#113 = AXIS2_PLACEMENT_3D ( 'NONE', #104, #177, #288 ) ;
#114 = ORIENTED_EDGE ( 'NONE', *, *, #297, .T. ) ;
#115 = CARTESIAN_POINT ( 'NONE',  ( 0.000000000000000000, 0.000000000000000000, 255.0000000000000000 ) ) ;
#116 = CIRCLE ( 'NONE', #170, 6.000000000000000888 ) ;
#117 = ORIENTED_EDGE ( 'NONE', *, *, #62, .F. ) ;
#118 = CYLINDRICAL_SURFACE ( 'NONE', #13, 6.000000000000000888 ) ;
#119 = DIRECTION ( 'NONE',  ( 1.000000000000000000, 0.000000000000000000, 0.000000000000000000 ) ) ;
#120 = ADVANCED_FACE ( 'NONE', ( #29 ), #118, .T. ) ;
#121 = AXIS2_PLACEMENT_3D ( 'NONE', #50, #125, #80 ) ;
#122 = DIRECTION ( 'NONE',  ( 0.000000000000000000, 0.000000000000000000, 1.000000000000000000 ) ) ;
#123 = CARTESIAN_POINT ( 'NONE',  ( 0.000000000000000000, 0.000000000000000000, 5.000000000000000000 ) ) ;
#124 = ADVANCED_FACE ( 'NONE', ( #191 ), #100, .F. ) ;
#125 = DIRECTION ( 'NONE',  ( 0.000000000000000000, 0.000000000000000000, 1.000000000000000000 ) ) ;
#126 = PRODUCT_DEFINITION_FORMATION_WITH_SPECIFIED_SOURCE ( 'LIBOVOLNÝ', '', #130, .NOT_KNOWN. ) ;
#127 = FACE_OUTER_BOUND ( 'NONE', #299, .T. ) ;
#128 = CARTESIAN_POINT ( 'NONE',  ( 0.000000000000000000, 0.000000000000000000, 5.200000000000009948 ) ) ;
#129 = ORIENTED_EDGE ( 'NONE', *, *, #287, .T. ) ;
#130 = PRODUCT ( '1dec', '1dec', '', ( #158 ) ) ;
#131 = AXIS2_PLACEMENT_3D ( 'NONE', #219, #194, #195 ) ;
#132 = CALENDAR_DATE ( 2022, 7, 7 ) ;
#133 = ORIENTED_EDGE ( 'NONE', *, *, #297, .F. ) ;
#134 = APPROVAL ( #246, 'NEURÈENÝ' ) ;
#135 =( LENGTH_UNIT ( ) NAMED_UNIT ( * ) SI_UNIT ( .MILLI., .METRE. ) );
#136 = VERTEX_POINT ( 'NONE', #165 ) ;
#137 = VERTEX_POINT ( 'NONE', #175 ) ;
#138 = EDGE_LOOP ( 'NONE', ( #114, #211 ) ) ;
#139 = ORIENTED_EDGE ( 'NONE', *, *, #235, .T. ) ;
#140 = EDGE_CURVE ( 'NONE', #144, #111, #196, .T. ) ;
#141 = DATE_AND_TIME ( #295, #205 ) ;
#142 = VERTEX_POINT ( 'NONE', #147 ) ;
#143 = APPROVAL_PERSON_ORGANIZATION ( #67, #134, #66 ) ;
#144 = VERTEX_POINT ( 'NONE', #65 ) ;
#145 = EDGE_CURVE ( 'NONE', #96, #282, #37, .T. ) ;
#146 = EDGE_LOOP ( 'NONE', ( #129, #139 ) ) ;
#147 = CARTESIAN_POINT ( 'NONE',  ( -6.000000000000000888, 0.000000000000000000, 5.000000000000000000 ) ) ;
#148 = CIRCLE ( 'NONE', #113, 0.2000000000000000944 ) ;
#149 = FACE_OUTER_BOUND ( 'NONE', #138, .T. ) ;
#150 = PRODUCT_RELATED_PRODUCT_CATEGORY ( 'detail', '', ( #130 ) ) ;
#151 = DIRECTION ( 'NONE',  ( 0.000000000000000000, -1.000000000000000000, 0.000000000000000000 ) ) ;
#152 = CARTESIAN_POINT ( 'NONE',  ( 0.000000000000000000, 0.000000000000000000, 5.000000000000000000 ) ) ;
#153 = TOROIDAL_SURFACE ( 'NONE', #174, 3.200000000000000622, 0.2000000000000000111 ) ;
#154 = PLANE ( 'NONE',  #266 ) ;
#155 = PRODUCT_DEFINITION ( 'NEZNÁMÝ', '', #126, #60 ) ;
#156 = VERTEX_POINT ( 'NONE', #63 ) ;
#157 =( NAMED_UNIT ( * ) PLANE_ANGLE_UNIT ( ) SI_UNIT ( $, .RADIAN. ) );
#158 = MECHANICAL_CONTEXT ( 'NONE', #98, 'mechanical' ) ;
#159 = ORIENTED_EDGE ( 'NONE', *, *, #62, .T. ) ;
#160 = EDGE_CURVE ( 'NONE', #95, #156, #53, .T. ) ;
#161 = DATE_AND_TIME ( #110, #4 ) ;
#162 = PERSON_AND_ORGANIZATION_ROLE ( 'classification_officer' ) ;
#163 = ORGANIZATION ( 'NEURÈENÝ', 'NEURÈENÝ', '' ) ;
#164 = SECURITY_CLASSIFICATION ( '', '', #184 ) ;
#165 = CARTESIAN_POINT ( 'NONE',  ( -6.000000000000000888, 0.000000000000000000, 0.000000000000000000 ) ) ;
#166 = CARTESIAN_POINT ( 'NONE',  ( 0.000000000000000000, 0.000000000000000000, 5.000000000000000000 ) ) ;
#167 = APPLICATION_CONTEXT ( 'configuration controlled 3d designs of mechanical parts and assemblies' ) ;
#168 = DIRECTION ( 'NONE',  ( 0.000000000000000000, 0.000000000000000000, 1.000000000000000000 ) ) ;
#169 = ORIENTED_EDGE ( 'NONE', *, *, #49, .F. ) ;
#170 = AXIS2_PLACEMENT_3D ( 'NONE', #152, #239, #197 ) ;
#171 = ORIENTED_EDGE ( 'NONE', *, *, #229, .F. ) ;
#172 = FACE_OUTER_BOUND ( 'NONE', #74, .T. ) ;
#173 = DIRECTION ( 'NONE',  ( 1.000000000000000000, 0.000000000000000000, -0.000000000000000000 ) ) ;
#174 = AXIS2_PLACEMENT_3D ( 'NONE', #128, #272, #32 ) ;
#175 = CARTESIAN_POINT ( 'NONE',  ( -3.000000000000000444, 0.000000000000000000, 255.0000000000000000 ) ) ;
#176 = CYLINDRICAL_SURFACE ( 'NONE', #20, 3.000000000000000444 ) ;
#177 = DIRECTION ( 'NONE',  ( 1.224646799147353207E-16, 1.000000000000000000, -0.000000000000000000 ) ) ;
#178 = EDGE_CURVE ( 'NONE', #156, #111, #148, .T. ) ;
#179 = APPROVAL_ROLE ( '' ) ;
#180 = PERSON_AND_ORGANIZATION_ROLE ( 'creator' ) ;
#181 = DATE_AND_TIME ( #132, #250 ) ;
#182 = ADVANCED_FACE ( 'NONE', ( #85, #241 ), #154, .T. ) ;
#183 = COORDINATED_UNIVERSAL_TIME_OFFSET ( 1, 0, .AHEAD. ) ;
#184 = SECURITY_CLASSIFICATION_LEVEL ( 'unclassified' ) ;
#185 = EDGE_LOOP ( 'NONE', ( #46, #223 ) ) ;
#186 = AXIS2_PLACEMENT_3D ( 'NONE', #286, #238, #1 ) ;
#187 = CARTESIAN_POINT ( 'NONE',  ( -6.000000000000000888, 0.000000000000000000, 5.000000000000000000 ) ) ;
#188 = CARTESIAN_POINT ( 'NONE',  ( 0.000000000000000000, 0.000000000000000000, 255.0000000000000000 ) ) ;
#189 = DIRECTION ( 'NONE',  ( 1.000000000000000000, 0.000000000000000000, 0.000000000000000000 ) ) ;
#190 = ADVANCED_FACE ( 'NONE', ( #149 ), #105, .T. ) ;
#191 = FACE_OUTER_BOUND ( 'NONE', #202, .T. ) ;
#192 = CIRCLE ( 'NONE', #68, 0.1999999999999996503 ) ;
#193 = CARTESIAN_POINT ( 'NONE',  ( 0.000000000000000000, 0.000000000000000000, 5.000000000000000000 ) ) ;
#194 = DIRECTION ( 'NONE',  ( -0.000000000000000000, -0.000000000000000000, -1.000000000000000000 ) ) ;
#195 = DIRECTION ( 'NONE',  ( 1.000000000000000000, 0.000000000000000000, 0.000000000000000000 ) ) ;
#196 = CIRCLE ( 'NONE', #58, 3.200000000000000622 ) ;
#197 = DIRECTION ( 'NONE',  ( 1.000000000000000000, 0.000000000000000000, 0.000000000000000000 ) ) ;
#198 = DIRECTION ( 'NONE',  ( 0.000000000000000000, 0.000000000000000000, 1.000000000000000000 ) ) ;
#199 = COORDINATED_UNIVERSAL_TIME_OFFSET ( 1, 0, .AHEAD. ) ;
#200 = AXIS2_PLACEMENT_3D ( 'NONE', #77, #168, #236 ) ;
#201 = APPROVAL_STATUS ( 'not_yet_approved' ) ;
#202 = EDGE_LOOP ( 'NONE', ( #206, #72, #92, #254 ) ) ;
#203 = PERSON_AND_ORGANIZATION_ROLE ( 'design_owner' ) ;
#204 = VECTOR ( 'NONE', #106, 1000.000000000000000 ) ;
#205 = LOCAL_TIME ( 12, 13, 24.00000000000000000, #199 ) ;
#206 = ORIENTED_EDGE ( 'NONE', *, *, #93, .F. ) ;
#207 = VECTOR ( 'NONE', #225, 1000.000000000000000 ) ;
#208 = CARTESIAN_POINT ( 'NONE',  ( -3.000000000000000444, 0.000000000000000000, 255.0000000000000000 ) ) ;
#209 = ORIENTED_EDGE ( 'NONE', *, *, #54, .F. ) ;
#210 = CARTESIAN_POINT ( 'NONE',  ( 0.000000000000000000, 0.000000000000000000, 5.000000000000000000 ) ) ;
#211 = ORIENTED_EDGE ( 'NONE', *, *, #71, .T. ) ;
#212 = AXIS2_PLACEMENT_3D ( 'NONE', #166, #262, #234 ) ;
#213 = DIRECTION ( 'NONE',  ( 1.000000000000000000, 0.000000000000000000, 0.000000000000000000 ) ) ;
#214 = DIRECTION ( 'NONE',  ( 0.000000000000000000, 0.000000000000000000, 1.000000000000000000 ) ) ;
#215 = DIRECTION ( 'NONE',  ( 0.000000000000000000, 0.000000000000000000, 1.000000000000000000 ) ) ;
#216 = CC_DESIGN_APPROVAL ( #134, ( #155 ) ) ;
#217 = APPROVAL ( #228, 'NEURÈENÝ' ) ;
#218 = CARTESIAN_POINT ( 'NONE',  ( 0.000000000000000000, 0.000000000000000000, 255.0000000000000000 ) ) ;
#219 = CARTESIAN_POINT ( 'NONE',  ( 0.000000000000000000, 0.000000000000000000, 5.000000000000000000 ) ) ;
#220 = ORIENTED_EDGE ( 'NONE', *, *, #160, .T. ) ;
#221 = CIRCLE ( 'NONE', #48, 6.000000000000000888 ) ;
#222 = AXIS2_PLACEMENT_3D ( 'NONE', #188, #75, #21 ) ;
#223 = ORIENTED_EDGE ( 'NONE', *, *, #229, .T. ) ;
#224 = PERSON_AND_ORGANIZATION ( #231, #163 ) ;
#225 = DIRECTION ( 'NONE',  ( -0.000000000000000000, -0.000000000000000000, -1.000000000000000000 ) ) ;
#226 =( GEOMETRIC_REPRESENTATION_CONTEXT ( 3 ) GLOBAL_UNCERTAINTY_ASSIGNED_CONTEXT ( ( #23 ) ) GLOBAL_UNIT_ASSIGNED_CONTEXT ( ( #135, #157, #253 ) ) REPRESENTATION_CONTEXT ( 'NONE', 'WORKASPACE' ) );
#227 = CC_DESIGN_APPROVAL ( #16, ( #126 ) ) ;
#228 = APPROVAL_STATUS ( 'not_yet_approved' ) ;
#229 = EDGE_CURVE ( 'NONE', #111, #144, #42, .T. ) ;
#230 = EDGE_LOOP ( 'NONE', ( #109, #283, #2, #171 ) ) ;
#231 = PERSON ( 'NEURÈENÝ', 'NEURÈENÝ', 'NEURÈENÝ', ('NEURÈENÝ'), ('NEURÈENÝ'), ('NEURÈENÝ') ) ;
#232 = CARTESIAN_POINT ( 'NONE',  ( 0.000000000000000000, 0.000000000000000000, 0.000000000000000000 ) ) ;
#233 = PRODUCT_DEFINITION_SHAPE ( 'NONE', 'NONE',  #155 ) ;
#234 = DIRECTION ( 'NONE',  ( -1.000000000000000000, 0.000000000000000000, 0.000000000000000000 ) ) ;
#235 = EDGE_CURVE ( 'NONE', #96, #142, #116, .T. ) ;
#236 = DIRECTION ( 'NONE',  ( 1.000000000000000000, 0.000000000000000000, 0.000000000000000000 ) ) ;
#237 = CARTESIAN_POINT ( 'NONE',  ( -3.200000000000000622, 3.918869757271530953E-16, 5.000000000000005329 ) ) ;
#238 = DIRECTION ( 'NONE',  ( 0.000000000000000000, 0.000000000000000000, 1.000000000000000000 ) ) ;
#239 = DIRECTION ( 'NONE',  ( 0.000000000000000000, 0.000000000000000000, 1.000000000000000000 ) ) ;
#240 = CIRCLE ( 'NONE', #25, 3.000000000000000444 ) ;
#241 = FACE_OUTER_BOUND ( 'NONE', #146, .T. ) ;
#242 = CC_DESIGN_PERSON_AND_ORGANIZATION_ASSIGNMENT ( #304, #180, ( #155 ) ) ;
#243 = CARTESIAN_POINT ( 'NONE',  ( 0.000000000000000000, 0.000000000000000000, 255.0000000000000000 ) ) ;
#244 = APPROVAL_PERSON_ORGANIZATION ( #47, #16, #44 ) ;
#245 = CARTESIAN_POINT ( 'NONE',  ( 6.000000000000000888, 7.347880794884120722E-16, 5.000000000000000000 ) ) ;
#246 = APPROVAL_STATUS ( 'not_yet_approved' ) ;
#247 = EDGE_LOOP ( 'NONE', ( #306, #279, #30, #159 ) ) ;
#248 = DATE_AND_TIME ( #276, #261 ) ;
#249 = ADVANCED_FACE ( 'NONE', ( #172 ), #292, .F. ) ;
#250 = LOCAL_TIME ( 12, 13, 24.00000000000000000, #91 ) ;
#251 = DATE_TIME_ROLE ( 'creation_date' ) ;
#252 = ORIENTED_EDGE ( 'NONE', *, *, #71, .F. ) ;
#253 =( NAMED_UNIT ( * ) SI_UNIT ( $, .STERADIAN. ) SOLID_ANGLE_UNIT ( ) );
#254 = ORIENTED_EDGE ( 'NONE', *, *, #291, .F. ) ;
#255 = PERSON_AND_ORGANIZATION ( #231, #163 ) ;
#256 = CIRCLE ( 'NONE', #200, 3.000000000000000444 ) ;
#257 = DIRECTION ( 'NONE',  ( -0.000000000000000000, -0.000000000000000000, -1.000000000000000000 ) ) ;
#258 = APPROVAL_DATE_TIME ( #141, #217 ) ;
#259 = DIRECTION ( 'NONE',  ( 0.000000000000000000, 0.000000000000000000, 1.000000000000000000 ) ) ;
#260 = ORIENTED_EDGE ( 'NONE', *, *, #54, .T. ) ;
#261 = LOCAL_TIME ( 12, 13, 24.00000000000000000, #300 ) ;
#262 = DIRECTION ( 'NONE',  ( -0.000000000000000000, -0.000000000000000000, -1.000000000000000000 ) ) ;
#263 = DIRECTION ( 'NONE',  ( -0.000000000000000000, -0.000000000000000000, -1.000000000000000000 ) ) ;
#264 = CC_DESIGN_PERSON_AND_ORGANIZATION_ASSIGNMENT ( #19, #203, ( #130 ) ) ;
#265 = DIRECTION ( 'NONE',  ( -1.000000000000000000, 0.000000000000000000, 0.000000000000000000 ) ) ;
#266 = AXIS2_PLACEMENT_3D ( 'NONE', #10, #215, #9 ) ;
#267 = DIRECTION ( 'NONE',  ( -0.000000000000000000, -0.000000000000000000, -1.000000000000000000 ) ) ;
#268 = CC_DESIGN_APPROVAL ( #217, ( #164 ) ) ;
#269 = CARTESIAN_POINT ( 'NONE',  ( 3.200000000000000622, 0.000000000000000000, 5.200000000000009948 ) ) ;
#270 = ADVANCED_FACE ( 'NONE', ( #127 ), #176, .T. ) ;
#271 = DIRECTION ( 'NONE',  ( 0.000000000000000000, 0.000000000000000000, -1.000000000000000000 ) ) ;
#272 = DIRECTION ( 'NONE',  ( 0.000000000000000000, 0.000000000000000000, 1.000000000000000000 ) ) ;
#273 = CIRCLE ( 'NONE', #296, 6.000000000000000888 ) ;
#274 = ADVANCED_BREP_SHAPE_REPRESENTATION ( '1dec', ( #33, #90 ), #226 ) ;
#275 = ADVANCED_FACE ( 'NONE', ( #61 ), #153, .F. ) ;
#276 = CALENDAR_DATE ( 2022, 7, 7 ) ;
#277 = ORIENTED_EDGE ( 'NONE', *, *, #235, .F. ) ;
#278 = DIRECTION ( 'NONE',  ( 0.000000000000000000, 0.000000000000000000, 1.000000000000000000 ) ) ;
#279 = ORIENTED_EDGE ( 'NONE', *, *, #287, .F. ) ;
#280 = CALENDAR_DATE ( 2022, 7, 7 ) ;
#281 = DATE_TIME_ROLE ( 'classification_date' ) ;
#282 = VERTEX_POINT ( 'NONE', #11 ) ;
#283 = ORIENTED_EDGE ( 'NONE', *, *, #160, .F. ) ;
#284 = CYLINDRICAL_SURFACE ( 'NONE', #222, 3.000000000000000444 ) ;
#285 = FACE_OUTER_BOUND ( 'NONE', #40, .T. ) ;
#286 = CARTESIAN_POINT ( 'NONE',  ( 0.000000000000000000, 0.000000000000000000, 0.000000000000000000 ) ) ;
#287 = EDGE_CURVE ( 'NONE', #142, #96, #273, .T. ) ;
#288 = DIRECTION ( 'NONE',  ( -1.000000000000000000, 1.224646799147353207E-16, 0.000000000000000000 ) ) ;
#289 = DIRECTION ( 'NONE',  ( -0.000000000000000000, -0.000000000000000000, -1.000000000000000000 ) ) ;
#290 = AXIS2_PLACEMENT_3D ( 'NONE', #293, #198, #173 ) ;
#291 = EDGE_CURVE ( 'NONE', #95, #144, #192, .T. ) ;
#292 = PLANE ( 'NONE',  #290 ) ;
#293 = CARTESIAN_POINT ( 'NONE',  ( 0.000000000000000000, 0.000000000000000000, 0.000000000000000000 ) ) ;
#294 = DIRECTION ( 'NONE',  ( 1.000000000000000000, 0.000000000000000000, -0.000000000000000000 ) ) ;
#295 = CALENDAR_DATE ( 2022, 7, 7 ) ;
#296 = AXIS2_PLACEMENT_3D ( 'NONE', #193, #122, #59 ) ;
#297 = EDGE_CURVE ( 'NONE', #137, #94, #303, .T. ) ;
#298 = APPROVAL_DATE_TIME ( #181, #16 ) ;
#299 = EDGE_LOOP ( 'NONE', ( #52, #133, #260, #302 ) ) ;
#300 = COORDINATED_UNIVERSAL_TIME_OFFSET ( 1, 0, .AHEAD. ) ;
#301 = EDGE_CURVE ( 'NONE', #94, #95, #6, .T. ) ;
#302 = ORIENTED_EDGE ( 'NONE', *, *, #93, .T. ) ;
#303 = CIRCLE ( 'NONE', #64, 3.000000000000000444 ) ;
#304 = PERSON_AND_ORGANIZATION ( #231, #163 ) ;
#305 = EDGE_LOOP ( 'NONE', ( #277, #69, #15, #169 ) ) ;
#306 = ORIENTED_EDGE ( 'NONE', *, *, #145, .F. ) ;
#307 = CYLINDRICAL_SURFACE ( 'NONE', #212, 6.000000000000000888 ) ;
ENDSEC;
END-ISO-10303-21;
