ISO-10303-21;
HEADER;
FILE_DESCRIPTION (( 'STEP AP203' ),
    '1' );
FILE_NAME ('6112.STEP',
    '2022-07-07T10:33:57',
    ( '' ),
    ( '' ),
    'SwSTEP 2.0',
    'SolidWorks 2019',
    '' );
FILE_SCHEMA (( 'CONFIG_CONTROL_DESIGN' ));
ENDSEC;

DATA;
#1 = CARTESIAN_POINT ( 'NONE',  ( 1.300000000000000266, 0.000000000000000000, 1.999999999999989564 ) ) ;
#2 = DIRECTION ( 'NONE',  ( 0.000000000000000000, 0.000000000000000000, 1.000000000000000000 ) ) ;
#3 = CARTESIAN_POINT ( 'NONE',  ( 0.000000000000000000, 0.000000000000000000, 317.0000000000000000 ) ) ;
#4 = LINE ( 'NONE', #241, #260 ) ;
#5 = DIRECTION ( 'NONE',  ( 1.000000000000000000, 0.000000000000000000, 0.000000000000000000 ) ) ;
#6 = EDGE_CURVE ( 'NONE', #138, #171, #82, .T. ) ;
#7 = EDGE_LOOP ( 'NONE', ( #61, #204, #176, #271 ) ) ;
#8 = EDGE_CURVE ( 'NONE', #39, #150, #201, .T. ) ;
#9 =( NAMED_UNIT ( * ) PLANE_ANGLE_UNIT ( ) SI_UNIT ( $, .RADIAN. ) );
#10 = APPROVAL_STATUS ( 'not_yet_approved' ) ;
#11 = PERSON_AND_ORGANIZATION ( #22, #80 ) ;
#12 = DIRECTION ( 'NONE',  ( 1.000000000000000000, 0.000000000000000000, 0.000000000000000000 ) ) ;
#13 = CALENDAR_DATE ( 2022, 7, 7 ) ;
#14 = DIRECTION ( 'NONE',  ( 1.000000000000000000, 0.000000000000000000, -0.000000000000000000 ) ) ;
#15 = AXIS2_PLACEMENT_3D ( 'NONE', #168, #123, #285 ) ;
#16 = PERSON_AND_ORGANIZATION_ROLE ( 'design_supplier' ) ;
#17 = CARTESIAN_POINT ( 'NONE',  ( 0.000000000000000000, 0.000000000000000000, 0.000000000000000000 ) ) ;
#18 = PERSON_AND_ORGANIZATION ( #22, #80 ) ;
#19 = ORIENTED_EDGE ( 'NONE', *, *, #85, .F. ) ;
#20 = AXIS2_PLACEMENT_3D ( 'NONE', #281, #42, #14 ) ;
#21 = ADVANCED_FACE ( 'NONE', ( #274 ), #295, .F. ) ;
#22 = PERSON ( 'NEURÈENÝ', 'NEURÈENÝ', 'NEURÈENÝ', ('NEURÈENÝ'), ('NEURÈENÝ'), ('NEURÈENÝ') ) ;
#23 = APPROVAL_ROLE ( '' ) ;
#24 = CARTESIAN_POINT ( 'NONE',  ( 0.000000000000000000, 0.000000000000000000, 0.000000000000000000 ) ) ;
#25 = PRODUCT ( '6112', '6112', '', ( #132 ) ) ;
#26 = CC_DESIGN_DATE_AND_TIME_ASSIGNMENT ( #69, #235, ( #113 ) ) ;
#27 = DIRECTION ( 'NONE',  ( 0.000000000000000000, 0.000000000000000000, 1.000000000000000000 ) ) ;
#28 = PLANE ( 'NONE',  #220 ) ;
#29 = FACE_OUTER_BOUND ( 'NONE', #250, .T. ) ;
#30 = APPROVAL_PERSON_ORGANIZATION ( #199, #127, #134 ) ;
#31 = VECTOR ( 'NONE', #239, 1000.000000000000000 ) ;
#32 = PLANE ( 'NONE',  #131 ) ;
#33 = ADVANCED_FACE ( 'NONE', ( #65 ), #135, .T. ) ;
#34 = ORIENTED_EDGE ( 'NONE', *, *, #252, .F. ) ;
#35 = EDGE_CURVE ( 'NONE', #107, #115, #167, .T. ) ;
#36 = AXIS2_PLACEMENT_3D ( 'NONE', #48, #226, #228 ) ;
#37 = CC_DESIGN_SECURITY_CLASSIFICATION ( #113, ( #300 ) ) ;
#38 = ORIENTED_EDGE ( 'NONE', *, *, #217, .T. ) ;
#39 = VERTEX_POINT ( 'NONE', #256 ) ;
#40 = ADVANCED_FACE ( 'NONE', ( #94 ), #68, .F. ) ;
#41 = COORDINATED_UNIVERSAL_TIME_OFFSET ( 1, 0, .AHEAD. ) ;
#42 = DIRECTION ( 'NONE',  ( 0.000000000000000000, 0.000000000000000000, 1.000000000000000000 ) ) ;
#43 = APPROVAL_PERSON_ORGANIZATION ( #47, #175, #23 ) ;
#44 = APPROVAL_DATE_TIME ( #233, #240 ) ;
#45 = DIRECTION ( 'NONE',  ( 1.000000000000000000, 0.000000000000000000, 0.000000000000000000 ) ) ;
#46 = CARTESIAN_POINT ( 'NONE',  ( 1.300000000000000266, 0.000000000000000000, 2.199999999999979750 ) ) ;
#47 = PERSON_AND_ORGANIZATION ( #22, #80 ) ;
#48 = CARTESIAN_POINT ( 'NONE',  ( 0.000000000000000000, 0.000000000000000000, 2.199999999999979750 ) ) ;
#49 = CIRCLE ( 'NONE', #218, 2.000000000000000000 ) ;
#50 = AXIS2_PLACEMENT_3D ( 'NONE', #243, #2, #53 ) ;
#51 = DIRECTION ( 'NONE',  ( 0.000000000000000000, 0.000000000000000000, 1.000000000000000000 ) ) ;
#52 = AXIS2_PLACEMENT_3D ( 'NONE', #215, #145, #237 ) ;
#53 = DIRECTION ( 'NONE',  ( 1.000000000000000000, 0.000000000000000000, 0.000000000000000000 ) ) ;
#54 = CC_DESIGN_PERSON_AND_ORGANIZATION_ASSIGNMENT ( #11, #66, ( #238 ) ) ;
#55 = CARTESIAN_POINT ( 'NONE',  ( 0.000000000000000000, 0.000000000000000000, 317.0000000000000000 ) ) ;
#56 = DIRECTION ( 'NONE',  ( 0.000000000000000000, 0.000000000000000000, 1.000000000000000000 ) ) ;
#57 = DIRECTION ( 'NONE',  ( -1.000000000000000000, 1.224646799147353207E-16, 0.000000000000000000 ) ) ;
#58 = PRODUCT_RELATED_PRODUCT_CATEGORY ( 'detail', '', ( #25 ) ) ;
#59 = AXIS2_PLACEMENT_3D ( 'NONE', #193, #56, #149 ) ;
#60 = ORIENTED_EDGE ( 'NONE', *, *, #294, .T. ) ;
#61 = ORIENTED_EDGE ( 'NONE', *, *, #35, .F. ) ;
#62 = AXIS2_PLACEMENT_3D ( 'NONE', #258, #254, #45 ) ;
#63 = LOCAL_TIME ( 12, 33, 57.00000000000000000, #183 ) ;
#64 = ADVANCED_FACE ( 'NONE', ( #89 ), #206, .T. ) ;
#65 = FACE_OUTER_BOUND ( 'NONE', #186, .T. ) ;
#66 = PERSON_AND_ORGANIZATION_ROLE ( 'creator' ) ;
#67 = CARTESIAN_POINT ( 'NONE',  ( 0.000000000000000000, 0.000000000000000000, 2.199999999999979750 ) ) ;
#68 = PLANE ( 'NONE',  #20 ) ;
#69 = DATE_AND_TIME ( #280, #63 ) ;
#70 = ORIENTED_EDGE ( 'NONE', *, *, #272, .F. ) ;
#71 = AXIS2_PLACEMENT_3D ( 'NONE', #165, #266, #99 ) ;
#72 = DIRECTION ( 'NONE',  ( 0.000000000000000000, 0.000000000000000000, 1.000000000000000000 ) ) ;
#73 = DIRECTION ( 'NONE',  ( 1.000000000000000000, 0.000000000000000000, 0.000000000000000000 ) ) ;
#74 = CIRCLE ( 'NONE', #291, 0.2000000000000000944 ) ;
#75 = FACE_OUTER_BOUND ( 'NONE', #181, .T. ) ;
#76 = FACE_BOUND ( 'NONE', #223, .T. ) ;
#77 = CARTESIAN_POINT ( 'NONE',  ( -2.000000000000000000, 0.000000000000000000, 2.000000000000000000 ) ) ;
#78 = DIRECTION ( 'NONE',  ( 0.000000000000000000, 0.000000000000000000, 1.000000000000000000 ) ) ;
#79 = EDGE_CURVE ( 'NONE', #222, #104, #162, .T. ) ;
#80 = ORGANIZATION ( 'NEURÈENÝ', 'NEURÈENÝ', '' ) ;
#81 = ORIENTED_EDGE ( 'NONE', *, *, #209, .F. ) ;
#82 = CIRCLE ( 'NONE', #106, 2.000000000000000000 ) ;
#83 = ORIENTED_EDGE ( 'NONE', *, *, #154, .F. ) ;
#84 = ORIENTED_EDGE ( 'NONE', *, *, #90, .T. ) ;
#85 = EDGE_CURVE ( 'NONE', #171, #138, #49, .T. ) ;
#86 = APPROVAL_DATE_TIME ( #139, #127 ) ;
#87 = CARTESIAN_POINT ( 'NONE',  ( 0.000000000000000000, 0.000000000000000000, 2.000000000000000000 ) ) ;
#88 = ORIENTED_EDGE ( 'NONE', *, *, #294, .F. ) ;
#89 = FACE_OUTER_BOUND ( 'NONE', #7, .T. ) ;
#90 = EDGE_CURVE ( 'NONE', #39, #222, #74, .T. ) ;
#91 = CLOSED_SHELL ( 'NONE', ( #21, #33, #64, #249, #196, #40, #203, #231, #270 ) ) ;
#92 = PERSON_AND_ORGANIZATION_ROLE ( 'classification_officer' ) ;
#93 = VERTEX_POINT ( 'NONE', #143 ) ;
#94 = FACE_OUTER_BOUND ( 'NONE', #129, .T. ) ;
#95 =( GEOMETRIC_REPRESENTATION_CONTEXT ( 3 ) GLOBAL_UNCERTAINTY_ASSIGNED_CONTEXT ( ( #172 ) ) GLOBAL_UNIT_ASSIGNED_CONTEXT ( ( #125, #9, #128 ) ) REPRESENTATION_CONTEXT ( 'NONE', 'WORKASPACE' ) );
#96 = CARTESIAN_POINT ( 'NONE',  ( 2.000000000000000000, 2.449293598294706414E-16, 2.000000000000000000 ) ) ;
#97 = CARTESIAN_POINT ( 'NONE',  ( -2.000000000000000000, 0.000000000000000000, 2.000000000000000000 ) ) ;
#98 = LOCAL_TIME ( 12, 33, 57.00000000000000000, #41 ) ;
#99 = DIRECTION ( 'NONE',  ( 1.000000000000000000, 0.000000000000000000, 0.000000000000000000 ) ) ;
#100 = CYLINDRICAL_SURFACE ( 'NONE', #15, 2.000000000000000000 ) ;
#101 = CARTESIAN_POINT ( 'NONE',  ( -1.300000000000000266, 1.592040838891559342E-16, 2.199999999999979750 ) ) ;
#102 = AXIS2_PLACEMENT_3D ( 'NONE', #101, #194, #57 ) ;
#103 = APPROVAL_PERSON_ORGANIZATION ( #302, #240, #116 ) ;
#104 = VERTEX_POINT ( 'NONE', #236 ) ;
#105 = CC_DESIGN_PERSON_AND_ORGANIZATION_ASSIGNMENT ( #227, #225, ( #25 ) ) ;
#106 = AXIS2_PLACEMENT_3D ( 'NONE', #24, #211, #232 ) ;
#107 = VERTEX_POINT ( 'NONE', #200 ) ;
#108 = AXIS2_PLACEMENT_3D ( 'NONE', #282, #72, #119 ) ;
#109 = CIRCLE ( 'NONE', #102, 0.2000000000000000944 ) ;
#110 = DATE_AND_TIME ( #142, #197 ) ;
#111 = COORDINATED_UNIVERSAL_TIME_OFFSET ( 1, 0, .AHEAD. ) ;
#112 = ORIENTED_EDGE ( 'NONE', *, *, #147, .T. ) ;
#113 = SECURITY_CLASSIFICATION ( '', '', #304 ) ;
#114 = DATE_AND_TIME ( #13, #98 ) ;
#115 = VERTEX_POINT ( 'NONE', #77 ) ;
#116 = APPROVAL_ROLE ( '' ) ;
#117 = DIRECTION ( 'NONE',  ( -0.000000000000000000, -0.000000000000000000, -1.000000000000000000 ) ) ;
#118 = PRODUCT_DEFINITION_SHAPE ( 'NONE', 'NONE',  #238 ) ;
#119 = DIRECTION ( 'NONE',  ( 1.000000000000000000, 0.000000000000000000, 0.000000000000000000 ) ) ;
#120 = ORIENTED_EDGE ( 'NONE', *, *, #79, .F. ) ;
#121 = CARTESIAN_POINT ( 'NONE',  ( 0.000000000000000000, 0.000000000000000000, 317.0000000000000000 ) ) ;
#122 = CYLINDRICAL_SURFACE ( 'NONE', #275, 1.100000000000000089 ) ;
#123 = DIRECTION ( 'NONE',  ( -0.000000000000000000, -0.000000000000000000, -1.000000000000000000 ) ) ;
#124 = CARTESIAN_POINT ( 'NONE',  ( 0.000000000000000000, 0.000000000000000000, 317.0000000000000000 ) ) ;
#125 =( LENGTH_UNIT ( ) NAMED_UNIT ( * ) SI_UNIT ( .MILLI., .METRE. ) );
#126 = CIRCLE ( 'NONE', #242, 1.100000000000000089 ) ;
#127 = APPROVAL ( #10, 'NEURÈENÝ' ) ;
#128 =( NAMED_UNIT ( * ) SI_UNIT ( $, .STERADIAN. ) SOLID_ANGLE_UNIT ( ) );
#129 = EDGE_LOOP ( 'NONE', ( #173, #19 ) ) ;
#130 = EDGE_LOOP ( 'NONE', ( #81, #153, #38, #293 ) ) ;
#131 = AXIS2_PLACEMENT_3D ( 'NONE', #212, #27, #169 ) ;
#132 = MECHANICAL_CONTEXT ( 'NONE', #189, 'mechanical' ) ;
#133 = CC_DESIGN_PERSON_AND_ORGANIZATION_ASSIGNMENT ( #18, #16, ( #300 ) ) ;
#134 = APPROVAL_ROLE ( '' ) ;
#135 = CYLINDRICAL_SURFACE ( 'NONE', #273, 1.100000000000000089 ) ;
#136 = ORIENTED_EDGE ( 'NONE', *, *, #144, .T. ) ;
#137 = PERSON_AND_ORGANIZATION ( #22, #80 ) ;
#138 = VERTEX_POINT ( 'NONE', #191 ) ;
#139 = DATE_AND_TIME ( #298, #178 ) ;
#140 = DIRECTION ( 'NONE',  ( 0.000000000000000000, -1.000000000000000000, 0.000000000000000000 ) ) ;
#141 = AXIS2_PLACEMENT_3D ( 'NONE', #303, #117, #157 ) ;
#142 = CALENDAR_DATE ( 2022, 7, 7 ) ;
#143 = CARTESIAN_POINT ( 'NONE',  ( 1.100000000000000089, 1.347111479062088503E-16, 317.0000000000000000 ) ) ;
#144 = EDGE_CURVE ( 'NONE', #301, #93, #126, .T. ) ;
#145 = DIRECTION ( 'NONE',  ( 0.000000000000000000, 0.000000000000000000, 1.000000000000000000 ) ) ;
#146 = CARTESIAN_POINT ( 'NONE',  ( 2.000000000000000000, 2.449293598294706414E-16, 0.000000000000000000 ) ) ;
#147 = EDGE_CURVE ( 'NONE', #115, #107, #152, .T. ) ;
#148 = FACE_OUTER_BOUND ( 'NONE', #269, .T. ) ;
#149 = DIRECTION ( 'NONE',  ( 1.000000000000000000, 0.000000000000000000, 0.000000000000000000 ) ) ;
#150 = VERTEX_POINT ( 'NONE', #261 ) ;
#151 = ORIENTED_EDGE ( 'NONE', *, *, #8, .F. ) ;
#152 = CIRCLE ( 'NONE', #52, 2.000000000000000000 ) ;
#153 = ORIENTED_EDGE ( 'NONE', *, *, #147, .F. ) ;
#154 = EDGE_CURVE ( 'NONE', #150, #39, #205, .T. ) ;
#155 = ORIENTED_EDGE ( 'NONE', *, *, #144, .F. ) ;
#156 = EDGE_LOOP ( 'NONE', ( #83, #60, #120, #184 ) ) ;
#157 = DIRECTION ( 'NONE',  ( -1.000000000000000000, 0.000000000000000000, 0.000000000000000000 ) ) ;
#158 = ORIENTED_EDGE ( 'NONE', *, *, #154, .T. ) ;
#159 = COORDINATED_UNIVERSAL_TIME_OFFSET ( 1, 0, .AHEAD. ) ;
#160 = CARTESIAN_POINT ( 'NONE',  ( 0.000000000000000000, 0.000000000000000000, 317.0000000000000000 ) ) ;
#161 = APPROVAL_DATE_TIME ( #110, #175 ) ;
#162 = CIRCLE ( 'NONE', #62, 1.300000000000000266 ) ;
#163 = DIRECTION ( 'NONE',  ( -1.000000000000000000, 0.000000000000000000, 0.000000000000000000 ) ) ;
#164 = CC_DESIGN_APPROVAL ( #240, ( #300 ) ) ;
#165 = CARTESIAN_POINT ( 'NONE',  ( 0.000000000000000000, 0.000000000000000000, 2.000000000000000000 ) ) ;
#166 = LINE ( 'NONE', #267, #247 ) ;
#167 = CIRCLE ( 'NONE', #188, 2.000000000000000000 ) ;
#168 = CARTESIAN_POINT ( 'NONE',  ( 0.000000000000000000, 0.000000000000000000, 2.000000000000000000 ) ) ;
#169 = DIRECTION ( 'NONE',  ( 1.000000000000000000, 0.000000000000000000, -0.000000000000000000 ) ) ;
#170 = CC_DESIGN_PERSON_AND_ORGANIZATION_ASSIGNMENT ( #137, #230, ( #300 ) ) ;
#171 = VERTEX_POINT ( 'NONE', #146 ) ;
#172 = UNCERTAINTY_MEASURE_WITH_UNIT (LENGTH_MEASURE( 1.000000000000000082E-05 ), #125, 'distance_accuracy_value', 'NONE');
#173 = ORIENTED_EDGE ( 'NONE', *, *, #6, .F. ) ;
#174 = ORIENTED_EDGE ( 'NONE', *, *, #272, .T. ) ;
#175 = APPROVAL ( #257, 'NEURÈENÝ' ) ;
#176 = ORIENTED_EDGE ( 'NONE', *, *, #85, .T. ) ;
#177 = ORIENTED_EDGE ( 'NONE', *, *, #265, .T. ) ;
#178 = LOCAL_TIME ( 12, 33, 57.00000000000000000, #111 ) ;
#179 = DIRECTION ( 'NONE',  ( -0.000000000000000000, -0.000000000000000000, -1.000000000000000000 ) ) ;
#180 = APPROVAL_STATUS ( 'not_yet_approved' ) ;
#181 = EDGE_LOOP ( 'NONE', ( #278, #155, #177, #158 ) ) ;
#182 = APPLICATION_CONTEXT ( 'configuration controlled 3d designs of mechanical parts and assemblies' ) ;
#183 = COORDINATED_UNIVERSAL_TIME_OFFSET ( 1, 0, .AHEAD. ) ;
#184 = ORIENTED_EDGE ( 'NONE', *, *, #90, .F. ) ;
#185 = CC_DESIGN_APPROVAL ( #127, ( #238 ) ) ;
#186 = EDGE_LOOP ( 'NONE', ( #70, #299, #221, #248 ) ) ;
#187 = DIRECTION ( 'NONE',  ( -0.000000000000000000, -0.000000000000000000, -1.000000000000000000 ) ) ;
#188 = AXIS2_PLACEMENT_3D ( 'NONE', #87, #276, #12 ) ;
#189 = APPLICATION_CONTEXT ( 'configuration controlled 3d designs of mechanical parts and assemblies' ) ;
#190 = FACE_OUTER_BOUND ( 'NONE', #130, .T. ) ;
#191 = CARTESIAN_POINT ( 'NONE',  ( -2.000000000000000000, 0.000000000000000000, 0.000000000000000000 ) ) ;
#192 = TOROIDAL_SURFACE ( 'NONE', #59, 1.300000000000000266, 0.2000000000000000111 ) ;
#193 = CARTESIAN_POINT ( 'NONE',  ( 0.000000000000000000, 0.000000000000000000, 2.199999999999979750 ) ) ;
#194 = DIRECTION ( 'NONE',  ( 1.224646799147353207E-16, 1.000000000000000000, -0.000000000000000000 ) ) ;
#195 = ORIENTED_EDGE ( 'NONE', *, *, #35, .T. ) ;
#196 = ADVANCED_FACE ( 'NONE', ( #76, #29 ), #32, .T. ) ;
#197 = LOCAL_TIME ( 12, 33, 57.00000000000000000, #159 ) ;
#198 = CIRCLE ( 'NONE', #71, 1.300000000000000266 ) ;
#199 = PERSON_AND_ORGANIZATION ( #22, #80 ) ;
#200 = CARTESIAN_POINT ( 'NONE',  ( 2.000000000000000000, 2.449293598294706414E-16, 2.000000000000000000 ) ) ;
#201 = CIRCLE ( 'NONE', #36, 1.100000000000000089 ) ;
#202 = SHAPE_DEFINITION_REPRESENTATION ( #118, #263 ) ;
#203 = ADVANCED_FACE ( 'NONE', ( #75 ), #122, .T. ) ;
#204 = ORIENTED_EDGE ( 'NONE', *, *, #209, .T. ) ;
#205 = CIRCLE ( 'NONE', #50, 1.100000000000000089 ) ;
#206 = CYLINDRICAL_SURFACE ( 'NONE', #141, 2.000000000000000000 ) ;
#207 = COORDINATED_UNIVERSAL_TIME_OFFSET ( 1, 0, .AHEAD. ) ;
#208 = DIRECTION ( 'NONE',  ( 0.000000000000000000, 0.000000000000000000, 1.000000000000000000 ) ) ;
#209 = EDGE_CURVE ( 'NONE', #107, #171, #284, .T. ) ;
#210 = PERSON_AND_ORGANIZATION ( #22, #80 ) ;
#211 = DIRECTION ( 'NONE',  ( 0.000000000000000000, 0.000000000000000000, 1.000000000000000000 ) ) ;
#212 = CARTESIAN_POINT ( 'NONE',  ( 0.000000000000000000, 0.000000000000000000, 2.000000000000000000 ) ) ;
#213 = DIRECTION ( 'NONE',  ( -0.000000000000000000, -0.000000000000000000, -1.000000000000000000 ) ) ;
#214 = DIRECTION ( 'NONE',  ( 1.000000000000000000, 0.000000000000000000, 0.000000000000000000 ) ) ;
#215 = CARTESIAN_POINT ( 'NONE',  ( 0.000000000000000000, 0.000000000000000000, 2.000000000000000000 ) ) ;
#216 = DIRECTION ( 'NONE',  ( 0.000000000000000000, 0.000000000000000000, 1.000000000000000000 ) ) ;
#217 = EDGE_CURVE ( 'NONE', #115, #138, #259, .T. ) ;
#218 = AXIS2_PLACEMENT_3D ( 'NONE', #17, #208, #305 ) ;
#219 = VECTOR ( 'NONE', #213, 1000.000000000000000 ) ;
#220 = AXIS2_PLACEMENT_3D ( 'NONE', #121, #51, #290 ) ;
#221 = ORIENTED_EDGE ( 'NONE', *, *, #8, .T. ) ;
#222 = VERTEX_POINT ( 'NONE', #1 ) ;
#223 = EDGE_LOOP ( 'NONE', ( #297, #224 ) ) ;
#224 = ORIENTED_EDGE ( 'NONE', *, *, #252, .T. ) ;
#225 = PERSON_AND_ORGANIZATION_ROLE ( 'design_owner' ) ;
#226 = DIRECTION ( 'NONE',  ( 0.000000000000000000, 0.000000000000000000, 1.000000000000000000 ) ) ;
#227 = PERSON_AND_ORGANIZATION ( #22, #80 ) ;
#228 = DIRECTION ( 'NONE',  ( 1.000000000000000000, 0.000000000000000000, 0.000000000000000000 ) ) ;
#229 = CIRCLE ( 'NONE', #255, 1.100000000000000089 ) ;
#230 = PERSON_AND_ORGANIZATION_ROLE ( 'creator' ) ;
#231 = ADVANCED_FACE ( 'NONE', ( #245 ), #28, .T. ) ;
#232 = DIRECTION ( 'NONE',  ( 1.000000000000000000, 0.000000000000000000, 0.000000000000000000 ) ) ;
#233 = DATE_AND_TIME ( #277, #296 ) ;
#234 = DIRECTION ( 'NONE',  ( 0.000000000000000000, 0.000000000000000000, -1.000000000000000000 ) ) ;
#235 = DATE_TIME_ROLE ( 'classification_date' ) ;
#236 = CARTESIAN_POINT ( 'NONE',  ( -1.300000000000000266, 1.592040838891559342E-16, 1.999999999999989564 ) ) ;
#237 = DIRECTION ( 'NONE',  ( 1.000000000000000000, 0.000000000000000000, 0.000000000000000000 ) ) ;
#238 = PRODUCT_DEFINITION ( 'NEZNÁMÝ', '', #300, #289 ) ;
#239 = DIRECTION ( 'NONE',  ( -0.000000000000000000, -0.000000000000000000, -1.000000000000000000 ) ) ;
#240 = APPROVAL ( #180, 'NEURÈENÝ' ) ;
#241 = CARTESIAN_POINT ( 'NONE',  ( 1.100000000000000089, 1.347111479062088503E-16, 317.0000000000000000 ) ) ;
#242 = AXIS2_PLACEMENT_3D ( 'NONE', #3, #78, #214 ) ;
#243 = CARTESIAN_POINT ( 'NONE',  ( 0.000000000000000000, 0.000000000000000000, 2.199999999999979750 ) ) ;
#244 = EDGE_CURVE ( 'NONE', #93, #39, #4, .T. ) ;
#245 = FACE_OUTER_BOUND ( 'NONE', #251, .T. ) ;
#246 = CC_DESIGN_DATE_AND_TIME_ASSIGNMENT ( #114, #306, ( #238 ) ) ;
#247 = VECTOR ( 'NONE', #264, 1000.000000000000000 ) ;
#248 = ORIENTED_EDGE ( 'NONE', *, *, #265, .F. ) ;
#249 = ADVANCED_FACE ( 'NONE', ( #190 ), #100, .T. ) ;
#250 = EDGE_LOOP ( 'NONE', ( #112, #195 ) ) ;
#251 = EDGE_LOOP ( 'NONE', ( #136, #174 ) ) ;
#252 = EDGE_CURVE ( 'NONE', #104, #222, #198, .T. ) ;
#253 = APPLICATION_PROTOCOL_DEFINITION ( 'international standard', 'config_control_design', 1994, #182 ) ;
#254 = DIRECTION ( 'NONE',  ( -0.000000000000000000, -0.000000000000000000, -1.000000000000000000 ) ) ;
#255 = AXIS2_PLACEMENT_3D ( 'NONE', #124, #216, #5 ) ;
#256 = CARTESIAN_POINT ( 'NONE',  ( 1.100000000000000089, 1.347111479062088503E-16, 2.199999999999979750 ) ) ;
#257 = APPROVAL_STATUS ( 'not_yet_approved' ) ;
#258 = CARTESIAN_POINT ( 'NONE',  ( 0.000000000000000000, 0.000000000000000000, 2.000000000000000000 ) ) ;
#259 = LINE ( 'NONE', #97, #31 ) ;
#260 = VECTOR ( 'NONE', #187, 1000.000000000000000 ) ;
#261 = CARTESIAN_POINT ( 'NONE',  ( -1.100000000000000089, 0.000000000000000000, 2.199999999999979750 ) ) ;
#262 = CC_DESIGN_PERSON_AND_ORGANIZATION_ASSIGNMENT ( #210, #92, ( #113 ) ) ;
#263 = ADVANCED_BREP_SHAPE_REPRESENTATION ( '6112', ( #288, #108 ), #95 ) ;
#264 = DIRECTION ( 'NONE',  ( -0.000000000000000000, -0.000000000000000000, -1.000000000000000000 ) ) ;
#265 = EDGE_CURVE ( 'NONE', #301, #150, #166, .T. ) ;
#266 = DIRECTION ( 'NONE',  ( -0.000000000000000000, -0.000000000000000000, -1.000000000000000000 ) ) ;
#267 = CARTESIAN_POINT ( 'NONE',  ( -1.100000000000000089, 0.000000000000000000, 317.0000000000000000 ) ) ;
#268 = APPLICATION_PROTOCOL_DEFINITION ( 'international standard', 'config_control_design', 1994, #189 ) ;
#269 = EDGE_LOOP ( 'NONE', ( #88, #151, #84, #34 ) ) ;
#270 = ADVANCED_FACE ( 'NONE', ( #148 ), #192, .F. ) ;
#271 = ORIENTED_EDGE ( 'NONE', *, *, #217, .F. ) ;
#272 = EDGE_CURVE ( 'NONE', #93, #301, #229, .T. ) ;
#273 = AXIS2_PLACEMENT_3D ( 'NONE', #160, #179, #307 ) ;
#274 = FACE_OUTER_BOUND ( 'NONE', #156, .T. ) ;
#275 = AXIS2_PLACEMENT_3D ( 'NONE', #55, #287, #163 ) ;
#276 = DIRECTION ( 'NONE',  ( 0.000000000000000000, 0.000000000000000000, 1.000000000000000000 ) ) ;
#277 = CALENDAR_DATE ( 2022, 7, 7 ) ;
#278 = ORIENTED_EDGE ( 'NONE', *, *, #244, .F. ) ;
#279 = AXIS2_PLACEMENT_3D ( 'NONE', #67, #283, #73 ) ;
#280 = CALENDAR_DATE ( 2022, 7, 7 ) ;
#281 = CARTESIAN_POINT ( 'NONE',  ( 0.000000000000000000, 0.000000000000000000, 0.000000000000000000 ) ) ;
#282 = CARTESIAN_POINT ( 'NONE',  ( 0.000000000000000000, 0.000000000000000000, 0.000000000000000000 ) ) ;
#283 = DIRECTION ( 'NONE',  ( 0.000000000000000000, 0.000000000000000000, 1.000000000000000000 ) ) ;
#284 = LINE ( 'NONE', #96, #219 ) ;
#285 = DIRECTION ( 'NONE',  ( -1.000000000000000000, 0.000000000000000000, 0.000000000000000000 ) ) ;
#286 = CC_DESIGN_APPROVAL ( #175, ( #113 ) ) ;
#287 = DIRECTION ( 'NONE',  ( -0.000000000000000000, -0.000000000000000000, -1.000000000000000000 ) ) ;
#288 = MANIFOLD_SOLID_BREP ( 'Zaoblit1', #91 ) ;
#289 = DESIGN_CONTEXT ( 'detailed design', #182, 'design' ) ;
#290 = DIRECTION ( 'NONE',  ( 1.000000000000000000, 0.000000000000000000, -0.000000000000000000 ) ) ;
#291 = AXIS2_PLACEMENT_3D ( 'NONE', #46, #140, #234 ) ;
#292 = CARTESIAN_POINT ( 'NONE',  ( -1.100000000000000089, 0.000000000000000000, 317.0000000000000000 ) ) ;
#293 = ORIENTED_EDGE ( 'NONE', *, *, #6, .T. ) ;
#294 = EDGE_CURVE ( 'NONE', #150, #104, #109, .T. ) ;
#295 = TOROIDAL_SURFACE ( 'NONE', #279, 1.300000000000000266, 0.2000000000000000111 ) ;
#296 = LOCAL_TIME ( 12, 33, 57.00000000000000000, #207 ) ;
#297 = ORIENTED_EDGE ( 'NONE', *, *, #79, .T. ) ;
#298 = CALENDAR_DATE ( 2022, 7, 7 ) ;
#299 = ORIENTED_EDGE ( 'NONE', *, *, #244, .T. ) ;
#300 = PRODUCT_DEFINITION_FORMATION_WITH_SPECIFIED_SOURCE ( 'LIBOVOLNÝ', '', #25, .NOT_KNOWN. ) ;
#301 = VERTEX_POINT ( 'NONE', #292 ) ;
#302 = PERSON_AND_ORGANIZATION ( #22, #80 ) ;
#303 = CARTESIAN_POINT ( 'NONE',  ( 0.000000000000000000, 0.000000000000000000, 2.000000000000000000 ) ) ;
#304 = SECURITY_CLASSIFICATION_LEVEL ( 'unclassified' ) ;
#305 = DIRECTION ( 'NONE',  ( 1.000000000000000000, 0.000000000000000000, 0.000000000000000000 ) ) ;
#306 = DATE_TIME_ROLE ( 'creation_date' ) ;
#307 = DIRECTION ( 'NONE',  ( -1.000000000000000000, 0.000000000000000000, 0.000000000000000000 ) ) ;
ENDSEC;
END-ISO-10303-21;
