ISO-10303-21;
HEADER;
FILE_DESCRIPTION (( 'STEP AP203' ),
    '1' );
FILE_NAME ('4ce2.STEP',
    '2022-07-07T10:22:42',
    ( '' ),
    ( '' ),
    'SwSTEP 2.0',
    'SolidWorks 2019',
    '' );
FILE_SCHEMA (( 'CONFIG_CONTROL_DESIGN' ));
ENDSEC;

DATA;
#1 = DIRECTION ( 'NONE',  ( 1.000000000000000000, 0.000000000000000000, 0.000000000000000000 ) ) ;
#2 = FACE_OUTER_BOUND ( 'NONE', #180, .T. ) ;
#3 = DIRECTION ( 'NONE',  ( 0.000000000000000000, 0.000000000000000000, 1.000000000000000000 ) ) ;
#4 = CARTESIAN_POINT ( 'NONE',  ( 0.000000000000000000, 0.000000000000000000, 1002.999999999999886 ) ) ;
#5 = ORIENTED_EDGE ( 'NONE', *, *, #121, .T. ) ;
#6 = UNCERTAINTY_MEASURE_WITH_UNIT (LENGTH_MEASURE( 1.000000000000000082E-05 ), #203, 'distance_accuracy_value', 'NONE');
#7 = DIRECTION ( 'NONE',  ( 1.000000000000000000, 0.000000000000000000, 0.000000000000000000 ) ) ;
#8 = DIRECTION ( 'NONE',  ( -0.000000000000000000, -0.000000000000000000, -1.000000000000000000 ) ) ;
#9 = CC_DESIGN_PERSON_AND_ORGANIZATION_ASSIGNMENT ( #114, #305, ( #268 ) ) ;
#10 = DIRECTION ( 'NONE',  ( 1.000000000000000000, 0.000000000000000000, 0.000000000000000000 ) ) ;
#11 = APPLICATION_CONTEXT ( 'configuration controlled 3d designs of mechanical parts and assemblies' ) ;
#12 =( NAMED_UNIT ( * ) SI_UNIT ( $, .STERADIAN. ) SOLID_ANGLE_UNIT ( ) );
#13 = APPLICATION_PROTOCOL_DEFINITION ( 'international standard', 'config_control_design', 1994, #11 ) ;
#14 = PRODUCT_RELATED_PRODUCT_CATEGORY ( 'detail', '', ( #267 ) ) ;
#15 = CALENDAR_DATE ( 2022, 7, 7 ) ;
#16 = ORIENTED_EDGE ( 'NONE', *, *, #193, .T. ) ;
#17 = CALENDAR_DATE ( 2022, 7, 7 ) ;
#18 = VERTEX_POINT ( 'NONE', #243 ) ;
#19 = DATE_AND_TIME ( #89, #301 ) ;
#20 = APPROVAL ( #151, 'NEURÈENÝ' ) ;
#21 = AXIS2_PLACEMENT_3D ( 'NONE', #270, #178, #149 ) ;
#22 = ORIENTED_EDGE ( 'NONE', *, *, #283, .T. ) ;
#23 = VECTOR ( 'NONE', #188, 1000.000000000000000 ) ;
#24 = EDGE_CURVE ( 'NONE', #72, #102, #292, .T. ) ;
#25 = APPLICATION_CONTEXT ( 'configuration controlled 3d designs of mechanical parts and assemblies' ) ;
#26 = DIRECTION ( 'NONE',  ( -1.000000000000000000, 0.000000000000000000, 0.000000000000000000 ) ) ;
#27 = APPROVAL_PERSON_ORGANIZATION ( #86, #20, #41 ) ;
#28 = CARTESIAN_POINT ( 'NONE',  ( 4.000000000000000000, 4.898587196589412829E-16, 3.000000000000000000 ) ) ;
#29 = CARTESIAN_POINT ( 'NONE',  ( -2.100000000000000089, 0.000000000000000000, 1002.999999999999886 ) ) ;
#30 = CARTESIAN_POINT ( 'NONE',  ( 2.100000000000000089, 2.571758278209441957E-16, 3.199999999999980638 ) ) ;
#31 = EDGE_CURVE ( 'NONE', #74, #222, #233, .T. ) ;
#32 = CARTESIAN_POINT ( 'NONE',  ( 0.000000000000000000, 0.000000000000000000, 3.199999999999980638 ) ) ;
#33 = DIRECTION ( 'NONE',  ( 1.000000000000000000, 0.000000000000000000, 0.000000000000000000 ) ) ;
#34 = DIRECTION ( 'NONE',  ( 1.000000000000000000, 0.000000000000000000, 0.000000000000000000 ) ) ;
#35 = CARTESIAN_POINT ( 'NONE',  ( 0.000000000000000000, 0.000000000000000000, 3.000000000000000000 ) ) ;
#36 = CARTESIAN_POINT ( 'NONE',  ( 0.000000000000000000, 0.000000000000000000, 0.000000000000000000 ) ) ;
#37 = CC_DESIGN_PERSON_AND_ORGANIZATION_ASSIGNMENT ( #274, #108, ( #268 ) ) ;
#38 = CIRCLE ( 'NONE', #213, 2.300000000000000266 ) ;
#39 = DIRECTION ( 'NONE',  ( 0.000000000000000000, 0.000000000000000000, 1.000000000000000000 ) ) ;
#40 = ORIENTED_EDGE ( 'NONE', *, *, #291, .F. ) ;
#41 = APPROVAL_ROLE ( '' ) ;
#42 = FACE_OUTER_BOUND ( 'NONE', #135, .T. ) ;
#43 = APPROVAL_STATUS ( 'not_yet_approved' ) ;
#44 = DIRECTION ( 'NONE',  ( 1.000000000000000000, 0.000000000000000000, 0.000000000000000000 ) ) ;
#45 = EDGE_LOOP ( 'NONE', ( #83, #247, #75, #128 ) ) ;
#46 = ADVANCED_FACE ( 'NONE', ( #179 ), #260, .F. ) ;
#47 = APPROVAL ( #43, 'NEURÈENÝ' ) ;
#48 = VECTOR ( 'NONE', #300, 1000.000000000000000 ) ;
#49 = LOCAL_TIME ( 12, 22, 42.00000000000000000, #154 ) ;
#50 = AXIS2_PLACEMENT_3D ( 'NONE', #101, #259, #77 ) ;
#51 = CC_DESIGN_PERSON_AND_ORGANIZATION_ASSIGNMENT ( #273, #223, ( #267 ) ) ;
#52 = PERSON ( 'NEURÈENÝ', 'NEURÈENÝ', 'NEURÈENÝ', ('NEURÈENÝ'), ('NEURÈENÝ'), ('NEURÈENÝ') ) ;
#53 = FACE_BOUND ( 'NONE', #279, .T. ) ;
#54 = DIRECTION ( 'NONE',  ( 0.000000000000000000, 0.000000000000000000, 1.000000000000000000 ) ) ;
#55 = AXIS2_PLACEMENT_3D ( 'NONE', #32, #127, #142 ) ;
#56 = CARTESIAN_POINT ( 'NONE',  ( 0.000000000000000000, 0.000000000000000000, 3.000000000000000000 ) ) ;
#57 = ORIENTED_EDGE ( 'NONE', *, *, #286, .F. ) ;
#58 = FACE_OUTER_BOUND ( 'NONE', #156, .T. ) ;
#59 = FACE_OUTER_BOUND ( 'NONE', #303, .T. ) ;
#60 = CIRCLE ( 'NONE', #98, 0.2000000000000000944 ) ;
#61 = EDGE_CURVE ( 'NONE', #298, #74, #202, .T. ) ;
#62 = ORIENTED_EDGE ( 'NONE', *, *, #295, .F. ) ;
#63 = CARTESIAN_POINT ( 'NONE',  ( -4.000000000000000000, 0.000000000000000000, 3.000000000000000000 ) ) ;
#64 = PERSON_AND_ORGANIZATION ( #52, #184 ) ;
#65 = PERSON_AND_ORGANIZATION_ROLE ( 'creator' ) ;
#66 = AXIS2_PLACEMENT_3D ( 'NONE', #36, #39, #221 ) ;
#67 = APPLICATION_PROTOCOL_DEFINITION ( 'international standard', 'config_control_design', 1994, #25 ) ;
#68 = TOROIDAL_SURFACE ( 'NONE', #55, 2.300000000000000266, 0.2000000000000000111 ) ;
#69 = APPROVAL_ROLE ( '' ) ;
#70 = CC_DESIGN_DATE_AND_TIME_ASSIGNMENT ( #297, #227, ( #258 ) ) ;
#71 = DIRECTION ( 'NONE',  ( 0.000000000000000000, 0.000000000000000000, 1.000000000000000000 ) ) ;
#72 = VERTEX_POINT ( 'NONE', #155 ) ;
#73 = SECURITY_CLASSIFICATION_LEVEL ( 'unclassified' ) ;
#74 = VERTEX_POINT ( 'NONE', #189 ) ;
#75 = ORIENTED_EDGE ( 'NONE', *, *, #61, .T. ) ;
#76 = APPROVAL ( #153, 'NEURÈENÝ' ) ;
#77 = DIRECTION ( 'NONE',  ( -1.000000000000000000, 0.000000000000000000, 0.000000000000000000 ) ) ;
#78 = CARTESIAN_POINT ( 'NONE',  ( 2.100000000000000089, 2.571758278209441957E-16, 1002.999999999999886 ) ) ;
#79 = CYLINDRICAL_SURFACE ( 'NONE', #50, 4.000000000000000000 ) ;
#80 = DIRECTION ( 'NONE',  ( 1.000000000000000000, 0.000000000000000000, -0.000000000000000000 ) ) ;
#81 = ORIENTED_EDGE ( 'NONE', *, *, #245, .T. ) ;
#82 = DIRECTION ( 'NONE',  ( 0.000000000000000000, 0.000000000000000000, 1.000000000000000000 ) ) ;
#83 = ORIENTED_EDGE ( 'NONE', *, *, #217, .F. ) ;
#84 = CC_DESIGN_SECURITY_CLASSIFICATION ( #285, ( #268 ) ) ;
#85 = DIRECTION ( 'NONE',  ( 0.000000000000000000, 0.000000000000000000, -1.000000000000000000 ) ) ;
#86 = PERSON_AND_ORGANIZATION ( #52, #184 ) ;
#87 = CIRCLE ( 'NONE', #201, 2.100000000000000089 ) ;
#88 = ORIENTED_EDGE ( 'NONE', *, *, #286, .T. ) ;
#89 = CALENDAR_DATE ( 2022, 7, 7 ) ;
#90 = DIRECTION ( 'NONE',  ( 0.000000000000000000, 0.000000000000000000, 1.000000000000000000 ) ) ;
#91 = DATE_AND_TIME ( #302, #49 ) ;
#92 = VERTEX_POINT ( 'NONE', #104 ) ;
#93 = ADVANCED_FACE ( 'NONE', ( #129 ), #244, .T. ) ;
#94 = AXIS2_PLACEMENT_3D ( 'NONE', #237, #3, #187 ) ;
#95 = CC_DESIGN_PERSON_AND_ORGANIZATION_ASSIGNMENT ( #224, #115, ( #285 ) ) ;
#96 = CARTESIAN_POINT ( 'NONE',  ( 4.000000000000000000, 4.898587196589412829E-16, 0.000000000000000000 ) ) ;
#97 = APPROVAL_PERSON_ORGANIZATION ( #64, #76, #272 ) ;
#98 = AXIS2_PLACEMENT_3D ( 'NONE', #287, #164, #241 ) ;
#99 = DIRECTION ( 'NONE',  ( 1.000000000000000000, 0.000000000000000000, -0.000000000000000000 ) ) ;
#100 = DIRECTION ( 'NONE',  ( 1.000000000000000000, 0.000000000000000000, -0.000000000000000000 ) ) ;
#101 = CARTESIAN_POINT ( 'NONE',  ( 0.000000000000000000, 0.000000000000000000, 3.000000000000000000 ) ) ;
#102 = VERTEX_POINT ( 'NONE', #30 ) ;
#103 = DIRECTION ( 'NONE',  ( -0.000000000000000000, -0.000000000000000000, -1.000000000000000000 ) ) ;
#104 = CARTESIAN_POINT ( 'NONE',  ( -2.100000000000000089, 0.000000000000000000, 1002.999999999999886 ) ) ;
#105 = CARTESIAN_POINT ( 'NONE',  ( 0.000000000000000000, 0.000000000000000000, 1002.999999999999886 ) ) ;
#106 = MECHANICAL_CONTEXT ( 'NONE', #11, 'mechanical' ) ;
#107 = VECTOR ( 'NONE', #103, 1000.000000000000000 ) ;
#108 = PERSON_AND_ORGANIZATION_ROLE ( 'design_supplier' ) ;
#109 = ORIENTED_EDGE ( 'NONE', *, *, #141, .F. ) ;
#110 = CARTESIAN_POINT ( 'NONE',  ( 0.000000000000000000, 0.000000000000000000, 3.199999999999980638 ) ) ;
#111 = ORIENTED_EDGE ( 'NONE', *, *, #295, .T. ) ;
#112 = APPROVAL_DATE_TIME ( #19, #20 ) ;
#113 = ORIENTED_EDGE ( 'NONE', *, *, #306, .T. ) ;
#114 = PERSON_AND_ORGANIZATION ( #52, #184 ) ;
#115 = PERSON_AND_ORGANIZATION_ROLE ( 'classification_officer' ) ;
#116 = APPROVAL_PERSON_ORGANIZATION ( #231, #47, #69 ) ;
#117 = CIRCLE ( 'NONE', #238, 2.300000000000000266 ) ;
#118 = CLOSED_SHELL ( 'NONE', ( #206, #93, #307, #271, #232, #284, #175, #169, #46 ) ) ;
#119 = DIRECTION ( 'NONE',  ( -0.000000000000000000, -0.000000000000000000, -1.000000000000000000 ) ) ;
#120 = LOCAL_TIME ( 12, 22, 42.00000000000000000, #130 ) ;
#121 = EDGE_CURVE ( 'NONE', #161, #298, #165, .T. ) ;
#122 = PLANE ( 'NONE',  #140 ) ;
#123 = EDGE_CURVE ( 'NONE', #18, #250, #38, .T. ) ;
#124 = DIRECTION ( 'NONE',  ( 0.000000000000000000, 0.000000000000000000, 1.000000000000000000 ) ) ;
#125 = DIRECTION ( 'NONE',  ( 1.000000000000000000, 0.000000000000000000, 0.000000000000000000 ) ) ;
#126 = DESIGN_CONTEXT ( 'detailed design', #25, 'design' ) ;
#127 = DIRECTION ( 'NONE',  ( 0.000000000000000000, 0.000000000000000000, 1.000000000000000000 ) ) ;
#128 = ORIENTED_EDGE ( 'NONE', *, *, #31, .T. ) ;
#129 = FACE_OUTER_BOUND ( 'NONE', #242, .T. ) ;
#130 = COORDINATED_UNIVERSAL_TIME_OFFSET ( 1, 0, .AHEAD. ) ;
#131 = AXIS2_PLACEMENT_3D ( 'NONE', #4, #262, #235 ) ;
#132 = VERTEX_POINT ( 'NONE', #264 ) ;
#133 = CARTESIAN_POINT ( 'NONE',  ( -4.000000000000000000, 0.000000000000000000, 3.000000000000000000 ) ) ;
#134 = ORIENTED_EDGE ( 'NONE', *, *, #123, .F. ) ;
#135 = EDGE_LOOP ( 'NONE', ( #181, #254, #81, #225 ) ) ;
#136 = CIRCLE ( 'NONE', #182, 0.2000000000000000944 ) ;
#137 = DIRECTION ( 'NONE',  ( 0.000000000000000000, 0.000000000000000000, 1.000000000000000000 ) ) ;
#138 = AXIS2_PLACEMENT_3D ( 'NONE', #35, #90, #125 ) ;
#139 = DIRECTION ( 'NONE',  ( -0.000000000000000000, -0.000000000000000000, -1.000000000000000000 ) ) ;
#140 = AXIS2_PLACEMENT_3D ( 'NONE', #144, #54, #100 ) ;
#141 = EDGE_CURVE ( 'NONE', #92, #132, #87, .T. ) ;
#142 = DIRECTION ( 'NONE',  ( 1.000000000000000000, 0.000000000000000000, 0.000000000000000000 ) ) ;
#143 = CARTESIAN_POINT ( 'NONE',  ( 0.000000000000000000, 0.000000000000000000, 1002.999999999999886 ) ) ;
#144 = CARTESIAN_POINT ( 'NONE',  ( 0.000000000000000000, 0.000000000000000000, 0.000000000000000000 ) ) ;
#145 = PLANE ( 'NONE',  #146 ) ;
#146 = AXIS2_PLACEMENT_3D ( 'NONE', #194, #82, #99 ) ;
#147 = ORIENTED_EDGE ( 'NONE', *, *, #183, .F. ) ;
#148 = ORIENTED_EDGE ( 'NONE', *, *, #207, .F. ) ;
#149 = DIRECTION ( 'NONE',  ( -1.000000000000000000, 0.000000000000000000, 0.000000000000000000 ) ) ;
#150 = ORIENTED_EDGE ( 'NONE', *, *, #31, .F. ) ;
#151 = APPROVAL_STATUS ( 'not_yet_approved' ) ;
#152 = ORIENTED_EDGE ( 'NONE', *, *, #207, .T. ) ;
#153 = APPROVAL_STATUS ( 'not_yet_approved' ) ;
#154 = COORDINATED_UNIVERSAL_TIME_OFFSET ( 1, 0, .AHEAD. ) ;
#155 = CARTESIAN_POINT ( 'NONE',  ( -2.100000000000000089, 0.000000000000000000, 3.199999999999980638 ) ) ;
#156 = EDGE_LOOP ( 'NONE', ( #22, #5 ) ) ;
#157 = AXIS2_PLACEMENT_3D ( 'NONE', #170, #218, #33 ) ;
#158 = ADVANCED_BREP_SHAPE_REPRESENTATION ( '4ce2', ( #220, #66 ), #257 ) ;
#159 = COORDINATED_UNIVERSAL_TIME_OFFSET ( 1, 0, .AHEAD. ) ;
#160 = LOCAL_TIME ( 12, 22, 42.00000000000000000, #248 ) ;
#161 = VERTEX_POINT ( 'NONE', #192 ) ;
#162 = CC_DESIGN_APPROVAL ( #76, ( #258 ) ) ;
#163 = CARTESIAN_POINT ( 'NONE',  ( 0.000000000000000000, 0.000000000000000000, 3.000000000000000000 ) ) ;
#164 = DIRECTION ( 'NONE',  ( 1.224646799147353207E-16, 1.000000000000000000, -0.000000000000000000 ) ) ;
#165 = CIRCLE ( 'NONE', #138, 4.000000000000000000 ) ;
#166 = DIRECTION ( 'NONE',  ( -0.000000000000000000, -0.000000000000000000, -1.000000000000000000 ) ) ;
#167 = CARTESIAN_POINT ( 'NONE',  ( 0.000000000000000000, 0.000000000000000000, 1002.999999999999886 ) ) ;
#168 = CARTESIAN_POINT ( 'NONE',  ( 0.000000000000000000, 0.000000000000000000, 0.000000000000000000 ) ) ;
#169 = ADVANCED_FACE ( 'NONE', ( #59 ), #145, .T. ) ;
#170 = CARTESIAN_POINT ( 'NONE',  ( 0.000000000000000000, 0.000000000000000000, 3.199999999999980638 ) ) ;
#171 = DIRECTION ( 'NONE',  ( 0.000000000000000000, 0.000000000000000000, 1.000000000000000000 ) ) ;
#172 =( NAMED_UNIT ( * ) PLANE_ANGLE_UNIT ( ) SI_UNIT ( $, .RADIAN. ) );
#173 = PRODUCT_DEFINITION_SHAPE ( 'NONE', 'NONE',  #258 ) ;
#174 = PERSON_AND_ORGANIZATION ( #52, #184 ) ;
#175 = ADVANCED_FACE ( 'NONE', ( #191 ), #261, .T. ) ;
#176 = SHAPE_DEFINITION_REPRESENTATION ( #173, #158 ) ;
#177 = AXIS2_PLACEMENT_3D ( 'NONE', #168, #171, #253 ) ;
#178 = DIRECTION ( 'NONE',  ( -0.000000000000000000, -0.000000000000000000, -1.000000000000000000 ) ) ;
#179 = FACE_OUTER_BOUND ( 'NONE', #304, .T. ) ;
#180 = EDGE_LOOP ( 'NONE', ( #150, #277 ) ) ;
#181 = ORIENTED_EDGE ( 'NONE', *, *, #121, .F. ) ;
#182 = AXIS2_PLACEMENT_3D ( 'NONE', #251, #196, #85 ) ;
#183 = EDGE_CURVE ( 'NONE', #72, #250, #60, .T. ) ;
#184 = ORGANIZATION ( 'NEURÈENÝ', 'NEURÈENÝ', '' ) ;
#185 = DIRECTION ( 'NONE',  ( 0.000000000000000000, 0.000000000000000000, 1.000000000000000000 ) ) ;
#186 = LINE ( 'NONE', #78, #236 ) ;
#187 = DIRECTION ( 'NONE',  ( 1.000000000000000000, 0.000000000000000000, 0.000000000000000000 ) ) ;
#188 = DIRECTION ( 'NONE',  ( -0.000000000000000000, -0.000000000000000000, -1.000000000000000000 ) ) ;
#189 = CARTESIAN_POINT ( 'NONE',  ( -4.000000000000000000, 0.000000000000000000, 0.000000000000000000 ) ) ;
#190 = CIRCLE ( 'NONE', #219, 4.000000000000000000 ) ;
#191 = FACE_OUTER_BOUND ( 'NONE', #293, .T. ) ;
#192 = CARTESIAN_POINT ( 'NONE',  ( 4.000000000000000000, 4.898587196589412829E-16, 3.000000000000000000 ) ) ;
#193 = EDGE_CURVE ( 'NONE', #132, #92, #296, .T. ) ;
#194 = CARTESIAN_POINT ( 'NONE',  ( 0.000000000000000000, 0.000000000000000000, 1002.999999999999886 ) ) ;
#195 = AXIS2_PLACEMENT_3D ( 'NONE', #110, #269, #34 ) ;
#196 = DIRECTION ( 'NONE',  ( 0.000000000000000000, -1.000000000000000000, 0.000000000000000000 ) ) ;
#197 = CC_DESIGN_APPROVAL ( #20, ( #268 ) ) ;
#198 = DATE_AND_TIME ( #15, #120 ) ;
#199 = EDGE_LOOP ( 'NONE', ( #226, #276, #134, #204 ) ) ;
#200 = APPROVAL_DATE_TIME ( #198, #76 ) ;
#201 = AXIS2_PLACEMENT_3D ( 'NONE', #105, #71, #44 ) ;
#202 = LINE ( 'NONE', #63, #48 ) ;
#203 =( LENGTH_UNIT ( ) NAMED_UNIT ( * ) SI_UNIT ( .MILLI., .METRE. ) );
#204 = ORIENTED_EDGE ( 'NONE', *, *, #306, .F. ) ;
#205 = DATE_TIME_ROLE ( 'classification_date' ) ;
#206 = ADVANCED_FACE ( 'NONE', ( #263 ), #68, .F. ) ;
#207 = EDGE_CURVE ( 'NONE', #250, #18, #117, .T. ) ;
#208 = LOCAL_TIME ( 12, 22, 42.00000000000000000, #159 ) ;
#209 = CIRCLE ( 'NONE', #249, 4.000000000000000000 ) ;
#210 = CC_DESIGN_APPROVAL ( #47, ( #285 ) ) ;
#211 = DIRECTION ( 'NONE',  ( 1.000000000000000000, 0.000000000000000000, 0.000000000000000000 ) ) ;
#212 = CARTESIAN_POINT ( 'NONE',  ( 0.000000000000000000, 0.000000000000000000, 0.000000000000000000 ) ) ;
#213 = AXIS2_PLACEMENT_3D ( 'NONE', #215, #288, #10 ) ;
#214 = CARTESIAN_POINT ( 'NONE',  ( -2.300000000000000266, 2.816687638038912549E-16, 2.999999999999990674 ) ) ;
#215 = CARTESIAN_POINT ( 'NONE',  ( 0.000000000000000000, 0.000000000000000000, 3.000000000000000000 ) ) ;
#216 = LINE ( 'NONE', #28, #107 ) ;
#217 = EDGE_CURVE ( 'NONE', #161, #222, #216, .T. ) ;
#218 = DIRECTION ( 'NONE',  ( 0.000000000000000000, 0.000000000000000000, 1.000000000000000000 ) ) ;
#219 = AXIS2_PLACEMENT_3D ( 'NONE', #163, #137, #211 ) ;
#220 = MANIFOLD_SOLID_BREP ( 'Zaoblit1', #118 ) ;
#221 = DIRECTION ( 'NONE',  ( 1.000000000000000000, 0.000000000000000000, 0.000000000000000000 ) ) ;
#222 = VERTEX_POINT ( 'NONE', #96 ) ;
#223 = PERSON_AND_ORGANIZATION_ROLE ( 'design_owner' ) ;
#224 = PERSON_AND_ORGANIZATION ( #52, #184 ) ;
#225 = ORIENTED_EDGE ( 'NONE', *, *, #61, .F. ) ;
#226 = ORIENTED_EDGE ( 'NONE', *, *, #24, .F. ) ;
#227 = DATE_TIME_ROLE ( 'creation_date' ) ;
#228 = APPROVAL_DATE_TIME ( #91, #47 ) ;
#229 = AXIS2_PLACEMENT_3D ( 'NONE', #167, #166, #26 ) ;
#230 = ORIENTED_EDGE ( 'NONE', *, *, #24, .T. ) ;
#231 = PERSON_AND_ORGANIZATION ( #52, #184 ) ;
#232 = ADVANCED_FACE ( 'NONE', ( #53, #58 ), #282, .T. ) ;
#233 = CIRCLE ( 'NONE', #177, 4.000000000000000000 ) ;
#234 = CC_DESIGN_PERSON_AND_ORGANIZATION_ASSIGNMENT ( #174, #65, ( #258 ) ) ;
#235 = DIRECTION ( 'NONE',  ( 1.000000000000000000, 0.000000000000000000, 0.000000000000000000 ) ) ;
#236 = VECTOR ( 'NONE', #139, 1000.000000000000000 ) ;
#237 = CARTESIAN_POINT ( 'NONE',  ( 0.000000000000000000, 0.000000000000000000, 3.199999999999980638 ) ) ;
#238 = AXIS2_PLACEMENT_3D ( 'NONE', #56, #119, #7 ) ;
#239 = LINE ( 'NONE', #29, #23 ) ;
#240 = ORIENTED_EDGE ( 'NONE', *, *, #291, .T. ) ;
#241 = DIRECTION ( 'NONE',  ( -1.000000000000000000, 1.224646799147353207E-16, 0.000000000000000000 ) ) ;
#242 = EDGE_LOOP ( 'NONE', ( #266, #88, #240, #62 ) ) ;
#243 = CARTESIAN_POINT ( 'NONE',  ( 2.300000000000000266, 0.000000000000000000, 2.999999999999990674 ) ) ;
#244 = CYLINDRICAL_SURFACE ( 'NONE', #278, 2.100000000000000089 ) ;
#245 = EDGE_CURVE ( 'NONE', #222, #74, #209, .T. ) ;
#246 = CIRCLE ( 'NONE', #94, 2.100000000000000089 ) ;
#247 = ORIENTED_EDGE ( 'NONE', *, *, #283, .F. ) ;
#248 = COORDINATED_UNIVERSAL_TIME_OFFSET ( 1, 0, .AHEAD. ) ;
#249 = AXIS2_PLACEMENT_3D ( 'NONE', #212, #124, #1 ) ;
#250 = VERTEX_POINT ( 'NONE', #214 ) ;
#251 = CARTESIAN_POINT ( 'NONE',  ( 2.300000000000000266, 0.000000000000000000, 3.199999999999980638 ) ) ;
#252 = DATE_AND_TIME ( #256, #208 ) ;
#253 = DIRECTION ( 'NONE',  ( 1.000000000000000000, 0.000000000000000000, 0.000000000000000000 ) ) ;
#254 = ORIENTED_EDGE ( 'NONE', *, *, #217, .T. ) ;
#255 = ORIENTED_EDGE ( 'NONE', *, *, #123, .T. ) ;
#256 = CALENDAR_DATE ( 2022, 7, 7 ) ;
#257 =( GEOMETRIC_REPRESENTATION_CONTEXT ( 3 ) GLOBAL_UNCERTAINTY_ASSIGNED_CONTEXT ( ( #6 ) ) GLOBAL_UNIT_ASSIGNED_CONTEXT ( ( #203, #172, #12 ) ) REPRESENTATION_CONTEXT ( 'NONE', 'WORKASPACE' ) );
#258 = PRODUCT_DEFINITION ( 'NEZNÁMÝ', '', #268, #126 ) ;
#259 = DIRECTION ( 'NONE',  ( -0.000000000000000000, -0.000000000000000000, -1.000000000000000000 ) ) ;
#260 = TOROIDAL_SURFACE ( 'NONE', #195, 2.300000000000000266, 0.2000000000000000111 ) ;
#261 = CYLINDRICAL_SURFACE ( 'NONE', #229, 2.100000000000000089 ) ;
#262 = DIRECTION ( 'NONE',  ( 0.000000000000000000, 0.000000000000000000, 1.000000000000000000 ) ) ;
#263 = FACE_OUTER_BOUND ( 'NONE', #199, .T. ) ;
#264 = CARTESIAN_POINT ( 'NONE',  ( 2.100000000000000089, 2.571758278209441957E-16, 1002.999999999999886 ) ) ;
#265 = CC_DESIGN_DATE_AND_TIME_ASSIGNMENT ( #252, #205, ( #285 ) ) ;
#266 = ORIENTED_EDGE ( 'NONE', *, *, #193, .F. ) ;
#267 = PRODUCT ( '4ce2', '4ce2', '', ( #106 ) ) ;
#268 = PRODUCT_DEFINITION_FORMATION_WITH_SPECIFIED_SOURCE ( 'LIBOVOLNÝ', '', #267, .NOT_KNOWN. ) ;
#269 = DIRECTION ( 'NONE',  ( 0.000000000000000000, 0.000000000000000000, 1.000000000000000000 ) ) ;
#270 = CARTESIAN_POINT ( 'NONE',  ( 0.000000000000000000, 0.000000000000000000, 3.000000000000000000 ) ) ;
#271 = ADVANCED_FACE ( 'NONE', ( #281 ), #79, .T. ) ;
#272 = APPROVAL_ROLE ( '' ) ;
#273 = PERSON_AND_ORGANIZATION ( #52, #184 ) ;
#274 = PERSON_AND_ORGANIZATION ( #52, #184 ) ;
#275 = DIRECTION ( 'NONE',  ( -1.000000000000000000, 0.000000000000000000, 0.000000000000000000 ) ) ;
#276 = ORIENTED_EDGE ( 'NONE', *, *, #183, .T. ) ;
#277 = ORIENTED_EDGE ( 'NONE', *, *, #245, .F. ) ;
#278 = AXIS2_PLACEMENT_3D ( 'NONE', #143, #8, #275 ) ;
#279 = EDGE_LOOP ( 'NONE', ( #255, #152 ) ) ;
#280 = AXIS2_PLACEMENT_3D ( 'NONE', #289, #185, #80 ) ;
#281 = FACE_OUTER_BOUND ( 'NONE', #45, .T. ) ;
#282 = PLANE ( 'NONE',  #280 ) ;
#283 = EDGE_CURVE ( 'NONE', #298, #161, #190, .T. ) ;
#284 = ADVANCED_FACE ( 'NONE', ( #2 ), #122, .F. ) ;
#285 = SECURITY_CLASSIFICATION ( '', '', #73 ) ;
#286 = EDGE_CURVE ( 'NONE', #132, #102, #186, .T. ) ;
#287 = CARTESIAN_POINT ( 'NONE',  ( -2.300000000000000266, 2.816687638038912549E-16, 3.199999999999980638 ) ) ;
#288 = DIRECTION ( 'NONE',  ( -0.000000000000000000, -0.000000000000000000, -1.000000000000000000 ) ) ;
#289 = CARTESIAN_POINT ( 'NONE',  ( 0.000000000000000000, 0.000000000000000000, 3.000000000000000000 ) ) ;
#290 = ORIENTED_EDGE ( 'NONE', *, *, #141, .T. ) ;
#291 = EDGE_CURVE ( 'NONE', #102, #72, #246, .T. ) ;
#292 = CIRCLE ( 'NONE', #157, 2.100000000000000089 ) ;
#293 = EDGE_LOOP ( 'NONE', ( #57, #109, #111, #230 ) ) ;
#294 = CYLINDRICAL_SURFACE ( 'NONE', #21, 4.000000000000000000 ) ;
#295 = EDGE_CURVE ( 'NONE', #92, #72, #239, .T. ) ;
#296 = CIRCLE ( 'NONE', #131, 2.100000000000000089 ) ;
#297 = DATE_AND_TIME ( #17, #160 ) ;
#298 = VERTEX_POINT ( 'NONE', #133 ) ;
#299 = COORDINATED_UNIVERSAL_TIME_OFFSET ( 1, 0, .AHEAD. ) ;
#300 = DIRECTION ( 'NONE',  ( -0.000000000000000000, -0.000000000000000000, -1.000000000000000000 ) ) ;
#301 = LOCAL_TIME ( 12, 22, 42.00000000000000000, #299 ) ;
#302 = CALENDAR_DATE ( 2022, 7, 7 ) ;
#303 = EDGE_LOOP ( 'NONE', ( #290, #16 ) ) ;
#304 = EDGE_LOOP ( 'NONE', ( #147, #40, #113, #148 ) ) ;
#305 = PERSON_AND_ORGANIZATION_ROLE ( 'creator' ) ;
#306 = EDGE_CURVE ( 'NONE', #102, #18, #136, .T. ) ;
#307 = ADVANCED_FACE ( 'NONE', ( #42 ), #294, .T. ) ;
ENDSEC;
END-ISO-10303-21;
