ISO-10303-21;
HEADER;
FILE_DESCRIPTION (( 'STEP AP203' ),
    '1' );
FILE_NAME ('82a4.STEP',
    '2022-07-07T09:39:17',
    ( '' ),
    ( '' ),
    'SwSTEP 2.0',
    'SolidWorks 2019',
    '' );
FILE_SCHEMA (( 'CONFIG_CONTROL_DESIGN' ));
ENDSEC;

DATA;
#1 = VERTEX_POINT ( 'NONE', #283 ) ;
#2 = DIRECTION ( 'NONE',  ( 1.000000000000000000, 0.000000000000000000, -0.000000000000000000 ) ) ;
#3 = EDGE_CURVE ( 'NONE', #1, #89, #205, .T. ) ;
#4 = PLANE ( 'NONE',  #305 ) ;
#5 = CARTESIAN_POINT ( 'NONE',  ( 8.200000000000001066, 0.000000000000000000, 7.199999999999998401 ) ) ;
#6 = LINE ( 'NONE', #76, #35 ) ;
#7 = APPROVAL_PERSON_ORGANIZATION ( #81, #298, #174 ) ;
#8 = PERSON ( 'NEURÈENÝ', 'NEURÈENÝ', 'NEURÈENÝ', ('NEURÈENÝ'), ('NEURÈENÝ'), ('NEURÈENÝ') ) ;
#9 = CARTESIAN_POINT ( 'NONE',  ( 0.000000000000000000, 0.000000000000000000, 107.0000000000000142 ) ) ;
#10 = DATE_TIME_ROLE ( 'creation_date' ) ;
#11 = CARTESIAN_POINT ( 'NONE',  ( -8.000000000000000000, 0.000000000000000000, 107.0000000000000142 ) ) ;
#12 = EDGE_CURVE ( 'NONE', #300, #187, #211, .T. ) ;
#13 = APPROVAL_ROLE ( '' ) ;
#14 = ORIENTED_EDGE ( 'NONE', *, *, #104, .F. ) ;
#15 = ORIENTED_EDGE ( 'NONE', *, *, #3, .F. ) ;
#16 = PRODUCT ( '82a4', '82a4', '', ( #107 ) ) ;
#17 = ORIENTED_EDGE ( 'NONE', *, *, #48, .T. ) ;
#18 = ADVANCED_FACE ( 'NONE', ( #231 ), #215, .F. ) ;
#19 = CIRCLE ( 'NONE', #102, 8.200000000000001066 ) ;
#20 = CARTESIAN_POINT ( 'NONE',  ( 11.00000000000000000, 1.347111479062088405E-15, 7.000000000000000000 ) ) ;
#21 = EDGE_LOOP ( 'NONE', ( #239, #96 ) ) ;
#22 = CC_DESIGN_PERSON_AND_ORGANIZATION_ASSIGNMENT ( #254, #184, ( #32 ) ) ;
#23 = ORIENTED_EDGE ( 'NONE', *, *, #124, .T. ) ;
#24 = DIRECTION ( 'NONE',  ( 0.000000000000000000, 0.000000000000000000, 1.000000000000000000 ) ) ;
#25 = ORIENTED_EDGE ( 'NONE', *, *, #220, .F. ) ;
#26 = ORIENTED_EDGE ( 'NONE', *, *, #127, .F. ) ;
#27 = APPLICATION_CONTEXT ( 'configuration controlled 3d designs of mechanical parts and assemblies' ) ;
#28 = FACE_OUTER_BOUND ( 'NONE', #214, .T. ) ;
#29 = LOCAL_TIME ( 11, 39, 17.00000000000000000, #301 ) ;
#30 = DIRECTION ( 'NONE',  ( 1.000000000000000000, 0.000000000000000000, 0.000000000000000000 ) ) ;
#31 = DIRECTION ( 'NONE',  ( -0.000000000000000000, -0.000000000000000000, -1.000000000000000000 ) ) ;
#32 = PRODUCT_DEFINITION ( 'NEZNÁMÝ', '', #54, #128 ) ;
#33 = DIRECTION ( 'NONE',  ( 1.000000000000000000, 0.000000000000000000, 0.000000000000000000 ) ) ;
#34 = CYLINDRICAL_SURFACE ( 'NONE', #87, 8.000000000000000000 ) ;
#35 = VECTOR ( 'NONE', #147, 1000.000000000000000 ) ;
#36 = COORDINATED_UNIVERSAL_TIME_OFFSET ( 1, 0, .AHEAD. ) ;
#37 = AXIS2_PLACEMENT_3D ( 'NONE', #197, #194, #222 ) ;
#38 = UNCERTAINTY_MEASURE_WITH_UNIT (LENGTH_MEASURE( 1.000000000000000082E-05 ), #132, 'distance_accuracy_value', 'NONE');
#39 = DIRECTION ( 'NONE',  ( 1.000000000000000000, 0.000000000000000000, 0.000000000000000000 ) ) ;
#40 = CARTESIAN_POINT ( 'NONE',  ( -8.200000000000001066, 1.004210375300829674E-15, 6.999999999999999112 ) ) ;
#41 = ADVANCED_FACE ( 'NONE', ( #161 ), #307, .F. ) ;
#42 = DIRECTION ( 'NONE',  ( 1.224646799147353207E-16, 1.000000000000000000, -0.000000000000000000 ) ) ;
#43 = PERSON_AND_ORGANIZATION ( #8, #64 ) ;
#44 = DIRECTION ( 'NONE',  ( 0.000000000000000000, 0.000000000000000000, 1.000000000000000000 ) ) ;
#45 = CIRCLE ( 'NONE', #259, 11.00000000000000000 ) ;
#46 = DIRECTION ( 'NONE',  ( 0.000000000000000000, 0.000000000000000000, 1.000000000000000000 ) ) ;
#47 = SHAPE_DEFINITION_REPRESENTATION ( #136, #170 ) ;
#48 = EDGE_CURVE ( 'NONE', #65, #288, #142, .T. ) ;
#49 = EDGE_LOOP ( 'NONE', ( #212, #163, #238, #25 ) ) ;
#50 = DIRECTION ( 'NONE',  ( 1.000000000000000000, 0.000000000000000000, 0.000000000000000000 ) ) ;
#51 = CARTESIAN_POINT ( 'NONE',  ( 0.000000000000000000, 0.000000000000000000, 107.0000000000000142 ) ) ;
#52 = CARTESIAN_POINT ( 'NONE',  ( 0.000000000000000000, 0.000000000000000000, 7.000000000000000000 ) ) ;
#53 = APPLICATION_CONTEXT ( 'configuration controlled 3d designs of mechanical parts and assemblies' ) ;
#54 = PRODUCT_DEFINITION_FORMATION_WITH_SPECIFIED_SOURCE ( 'LIBOVOLNÝ', '', #16, .NOT_KNOWN. ) ;
#55 = DIRECTION ( 'NONE',  ( -0.000000000000000000, -0.000000000000000000, -1.000000000000000000 ) ) ;
#56 = FACE_OUTER_BOUND ( 'NONE', #192, .T. ) ;
#57 = FACE_OUTER_BOUND ( 'NONE', #113, .T. ) ;
#58 = VECTOR ( 'NONE', #195, 1000.000000000000000 ) ;
#59 = DIRECTION ( 'NONE',  ( -0.000000000000000000, -0.000000000000000000, -1.000000000000000000 ) ) ;
#60 = EDGE_CURVE ( 'NONE', #263, #65, #251, .T. ) ;
#61 = APPROVAL_DATE_TIME ( #111, #92 ) ;
#62 = COORDINATED_UNIVERSAL_TIME_OFFSET ( 1, 0, .AHEAD. ) ;
#63 = CC_DESIGN_PERSON_AND_ORGANIZATION_ASSIGNMENT ( #155, #108, ( #73 ) ) ;
#64 = ORGANIZATION ( 'NEURÈENÝ', 'NEURÈENÝ', '' ) ;
#65 = VERTEX_POINT ( 'NONE', #229 ) ;
#66 = DIRECTION ( 'NONE',  ( 1.000000000000000000, 0.000000000000000000, 0.000000000000000000 ) ) ;
#67 = CARTESIAN_POINT ( 'NONE',  ( 8.200000000000001066, 0.000000000000000000, 6.999999999999999112 ) ) ;
#68 = VERTEX_POINT ( 'NONE', #67 ) ;
#69 = EDGE_CURVE ( 'NONE', #306, #157, #82, .T. ) ;
#70 = MANIFOLD_SOLID_BREP ( 'Zaoblit1', #168 ) ;
#71 = DIRECTION ( 'NONE',  ( 1.000000000000000000, 0.000000000000000000, 0.000000000000000000 ) ) ;
#72 = AXIS2_PLACEMENT_3D ( 'NONE', #109, #42, #282 ) ;
#73 = SECURITY_CLASSIFICATION ( '', '', #274 ) ;
#74 = FACE_OUTER_BOUND ( 'NONE', #120, .T. ) ;
#75 = FACE_BOUND ( 'NONE', #21, .T. ) ;
#76 = CARTESIAN_POINT ( 'NONE',  ( 8.000000000000000000, 9.797174393178825657E-16, 107.0000000000000142 ) ) ;
#77 = AXIS2_PLACEMENT_3D ( 'NONE', #302, #208, #134 ) ;
#78 = AXIS2_PLACEMENT_3D ( 'NONE', #159, #59, #180 ) ;
#79 = DIRECTION ( 'NONE',  ( 0.000000000000000000, 0.000000000000000000, 1.000000000000000000 ) ) ;
#80 = CARTESIAN_POINT ( 'NONE',  ( 0.000000000000000000, 0.000000000000000000, 7.000000000000000000 ) ) ;
#81 = PERSON_AND_ORGANIZATION ( #8, #64 ) ;
#82 = CIRCLE ( 'NONE', #117, 11.00000000000000000 ) ;
#83 = LOCAL_TIME ( 11, 39, 17.00000000000000000, #62 ) ;
#84 = CARTESIAN_POINT ( 'NONE',  ( -11.00000000000000000, 0.000000000000000000, 0.000000000000000000 ) ) ;
#85 = COORDINATED_UNIVERSAL_TIME_OFFSET ( 1, 0, .AHEAD. ) ;
#86 = ORIENTED_EDGE ( 'NONE', *, *, #247, .F. ) ;
#87 = AXIS2_PLACEMENT_3D ( 'NONE', #51, #126, #290 ) ;
#88 = ORIENTED_EDGE ( 'NONE', *, *, #261, .T. ) ;
#89 = VERTEX_POINT ( 'NONE', #20 ) ;
#90 = DIRECTION ( 'NONE',  ( 1.000000000000000000, 0.000000000000000000, 0.000000000000000000 ) ) ;
#91 = APPROVAL_DATE_TIME ( #186, #210 ) ;
#92 = APPROVAL ( #130, 'NEURÈENÝ' ) ;
#93 = DATE_TIME_ROLE ( 'classification_date' ) ;
#94 = ORIENTED_EDGE ( 'NONE', *, *, #69, .F. ) ;
#95 = EDGE_CURVE ( 'NONE', #65, #263, #114, .T. ) ;
#96 = ORIENTED_EDGE ( 'NONE', *, *, #220, .T. ) ;
#97 = ORIENTED_EDGE ( 'NONE', *, *, #303, .T. ) ;
#98 = DIRECTION ( 'NONE',  ( -0.000000000000000000, -0.000000000000000000, -1.000000000000000000 ) ) ;
#99 = PRODUCT_RELATED_PRODUCT_CATEGORY ( 'detail', '', ( #16 ) ) ;
#100 = CARTESIAN_POINT ( 'NONE',  ( -11.00000000000000000, 0.000000000000000000, 7.000000000000000000 ) ) ;
#101 = AXIS2_PLACEMENT_3D ( 'NONE', #191, #24, #50 ) ;
#102 = AXIS2_PLACEMENT_3D ( 'NONE', #103, #55, #173 ) ;
#103 = CARTESIAN_POINT ( 'NONE',  ( 0.000000000000000000, 0.000000000000000000, 7.000000000000000000 ) ) ;
#104 = EDGE_CURVE ( 'NONE', #89, #1, #45, .T. ) ;
#105 = DIRECTION ( 'NONE',  ( 1.000000000000000000, 0.000000000000000000, 0.000000000000000000 ) ) ;
#106 = PERSON_AND_ORGANIZATION_ROLE ( 'creator' ) ;
#107 = MECHANICAL_CONTEXT ( 'NONE', #53, 'mechanical' ) ;
#108 = PERSON_AND_ORGANIZATION_ROLE ( 'classification_officer' ) ;
#109 = CARTESIAN_POINT ( 'NONE',  ( -8.200000000000001066, 1.004210375300829674E-15, 7.199999999999998401 ) ) ;
#110 = ADVANCED_FACE ( 'NONE', ( #74 ), #296, .F. ) ;
#111 = DATE_AND_TIME ( #228, #83 ) ;
#112 = CARTESIAN_POINT ( 'NONE',  ( 0.000000000000000000, 0.000000000000000000, 0.000000000000000000 ) ) ;
#113 = EDGE_LOOP ( 'NONE', ( #138, #15, #23, #190 ) ) ;
#114 = CIRCLE ( 'NONE', #175, 8.000000000000000000 ) ;
#115 = LOCAL_TIME ( 11, 39, 17.00000000000000000, #85 ) ;
#116 = ORIENTED_EDGE ( 'NONE', *, *, #233, .F. ) ;
#117 = AXIS2_PLACEMENT_3D ( 'NONE', #257, #44, #71 ) ;
#118 = ADVANCED_FACE ( 'NONE', ( #56 ), #34, .T. ) ;
#119 = DIRECTION ( 'NONE',  ( 0.000000000000000000, 0.000000000000000000, 1.000000000000000000 ) ) ;
#120 = EDGE_LOOP ( 'NONE', ( #289, #17, #26, #86 ) ) ;
#121 = CYLINDRICAL_SURFACE ( 'NONE', #265, 11.00000000000000000 ) ;
#122 = APPROVAL_PERSON_ORGANIZATION ( #43, #92, #13 ) ;
#123 = DIRECTION ( 'NONE',  ( 1.000000000000000000, 0.000000000000000000, 0.000000000000000000 ) ) ;
#124 = EDGE_CURVE ( 'NONE', #1, #306, #243, .T. ) ;
#125 = DIRECTION ( 'NONE',  ( -1.000000000000000000, 0.000000000000000000, 0.000000000000000000 ) ) ;
#126 = DIRECTION ( 'NONE',  ( -0.000000000000000000, -0.000000000000000000, -1.000000000000000000 ) ) ;
#127 = EDGE_CURVE ( 'NONE', #68, #288, #19, .T. ) ;
#128 = DESIGN_CONTEXT ( 'detailed design', #27, 'design' ) ;
#129 = DIRECTION ( 'NONE',  ( 0.000000000000000000, 0.000000000000000000, 1.000000000000000000 ) ) ;
#130 = APPROVAL_STATUS ( 'not_yet_approved' ) ;
#131 =( NAMED_UNIT ( * ) PLANE_ANGLE_UNIT ( ) SI_UNIT ( $, .RADIAN. ) );
#132 =( LENGTH_UNIT ( ) NAMED_UNIT ( * ) SI_UNIT ( .MILLI., .METRE. ) );
#133 = ORIENTED_EDGE ( 'NONE', *, *, #3, .T. ) ;
#134 = DIRECTION ( 'NONE',  ( 1.000000000000000000, 0.000000000000000000, 0.000000000000000000 ) ) ;
#135 = CALENDAR_DATE ( 2022, 7, 7 ) ;
#136 = PRODUCT_DEFINITION_SHAPE ( 'NONE', 'NONE',  #32 ) ;
#137 = ORIENTED_EDGE ( 'NONE', *, *, #60, .T. ) ;
#138 = ORIENTED_EDGE ( 'NONE', *, *, #203, .F. ) ;
#139 = ADVANCED_FACE ( 'NONE', ( #149 ), #245, .T. ) ;
#140 = AXIS2_PLACEMENT_3D ( 'NONE', #167, #79, #242 ) ;
#141 = CARTESIAN_POINT ( 'NONE',  ( 0.000000000000000000, 0.000000000000000000, 7.199999999999998401 ) ) ;
#142 = CIRCLE ( 'NONE', #72, 0.2000000000000005107 ) ;
#143 = ORIENTED_EDGE ( 'NONE', *, *, #233, .T. ) ;
#144 = CALENDAR_DATE ( 2022, 7, 7 ) ;
#145 = DIRECTION ( 'NONE',  ( 1.000000000000000000, 0.000000000000000000, -0.000000000000000000 ) ) ;
#146 = PLANE ( 'NONE',  #37 ) ;
#147 = DIRECTION ( 'NONE',  ( -0.000000000000000000, -0.000000000000000000, -1.000000000000000000 ) ) ;
#148 = LOCAL_TIME ( 11, 39, 17.00000000000000000, #36 ) ;
#149 = FACE_OUTER_BOUND ( 'NONE', #213, .T. ) ;
#150 = FACE_OUTER_BOUND ( 'NONE', #279, .T. ) ;
#151 = CC_DESIGN_PERSON_AND_ORGANIZATION_ASSIGNMENT ( #223, #106, ( #54 ) ) ;
#152 = CYLINDRICAL_SURFACE ( 'NONE', #78, 11.00000000000000000 ) ;
#153 = VECTOR ( 'NONE', #98, 1000.000000000000000 ) ;
#154 = APPLICATION_PROTOCOL_DEFINITION ( 'international standard', 'config_control_design', 1994, #53 ) ;
#155 = PERSON_AND_ORGANIZATION ( #8, #64 ) ;
#156 = ADVANCED_FACE ( 'NONE', ( #75, #218 ), #146, .T. ) ;
#157 = VERTEX_POINT ( 'NONE', #240 ) ;
#158 = EDGE_LOOP ( 'NONE', ( #94, #230 ) ) ;
#159 = CARTESIAN_POINT ( 'NONE',  ( 0.000000000000000000, 0.000000000000000000, 7.000000000000000000 ) ) ;
#160 = ORIENTED_EDGE ( 'NONE', *, *, #12, .F. ) ;
#161 = FACE_OUTER_BOUND ( 'NONE', #158, .T. ) ;
#162 = ORIENTED_EDGE ( 'NONE', *, *, #269, .F. ) ;
#163 = ORIENTED_EDGE ( 'NONE', *, *, #60, .F. ) ;
#164 = CIRCLE ( 'NONE', #207, 0.1999999999999996503 ) ;
#165 = CARTESIAN_POINT ( 'NONE',  ( 0.000000000000000000, 0.000000000000000000, 7.199999999999998401 ) ) ;
#166 = CARTESIAN_POINT ( 'NONE',  ( 8.000000000000000000, 9.797174393178825657E-16, 107.0000000000000142 ) ) ;
#167 = CARTESIAN_POINT ( 'NONE',  ( 0.000000000000000000, 0.000000000000000000, 0.000000000000000000 ) ) ;
#168 = CLOSED_SHELL ( 'NONE', ( #110, #118, #193, #276, #156, #41, #139, #171, #18 ) ) ;
#169 = LOCAL_TIME ( 11, 39, 17.00000000000000000, #209 ) ;
#170 = ADVANCED_BREP_SHAPE_REPRESENTATION ( '82a4', ( #70, #217 ), #176 ) ;
#171 = ADVANCED_FACE ( 'NONE', ( #28 ), #4, .T. ) ;
#172 = CARTESIAN_POINT ( 'NONE',  ( 8.000000000000000000, 9.797174393178825657E-16, 7.199999999999998401 ) ) ;
#173 = DIRECTION ( 'NONE',  ( 1.000000000000000000, 0.000000000000000000, 0.000000000000000000 ) ) ;
#174 = APPROVAL_ROLE ( '' ) ;
#175 = AXIS2_PLACEMENT_3D ( 'NONE', #304, #46, #90 ) ;
#176 =( GEOMETRIC_REPRESENTATION_CONTEXT ( 3 ) GLOBAL_UNCERTAINTY_ASSIGNED_CONTEXT ( ( #38 ) ) GLOBAL_UNIT_ASSIGNED_CONTEXT ( ( #132, #131, #295 ) ) REPRESENTATION_CONTEXT ( 'NONE', 'WORKASPACE' ) );
#177 = CALENDAR_DATE ( 2022, 7, 7 ) ;
#178 = CC_DESIGN_DATE_AND_TIME_ASSIGNMENT ( #236, #93, ( #73 ) ) ;
#179 = DIRECTION ( 'NONE',  ( -0.000000000000000000, -0.000000000000000000, -1.000000000000000000 ) ) ;
#180 = DIRECTION ( 'NONE',  ( -1.000000000000000000, 0.000000000000000000, 0.000000000000000000 ) ) ;
#181 = ORIENTED_EDGE ( 'NONE', *, *, #124, .F. ) ;
#182 = AXIS2_PLACEMENT_3D ( 'NONE', #141, #202, #258 ) ;
#183 = CC_DESIGN_APPROVAL ( #210, ( #73 ) ) ;
#184 = PERSON_AND_ORGANIZATION_ROLE ( 'creator' ) ;
#185 = ORIENTED_EDGE ( 'NONE', *, *, #203, .T. ) ;
#186 = DATE_AND_TIME ( #262, #169 ) ;
#187 = VERTEX_POINT ( 'NONE', #166 ) ;
#188 = APPROVAL_STATUS ( 'not_yet_approved' ) ;
#189 = CC_DESIGN_APPROVAL ( #92, ( #32 ) ) ;
#190 = ORIENTED_EDGE ( 'NONE', *, *, #69, .T. ) ;
#191 = CARTESIAN_POINT ( 'NONE',  ( 0.000000000000000000, 0.000000000000000000, 107.0000000000000142 ) ) ;
#192 = EDGE_LOOP ( 'NONE', ( #162, #143, #137, #204 ) ) ;
#193 = ADVANCED_FACE ( 'NONE', ( #150 ), #121, .T. ) ;
#194 = DIRECTION ( 'NONE',  ( 0.000000000000000000, 0.000000000000000000, 1.000000000000000000 ) ) ;
#195 = DIRECTION ( 'NONE',  ( -0.000000000000000000, -0.000000000000000000, -1.000000000000000000 ) ) ;
#196 = CARTESIAN_POINT ( 'NONE',  ( 11.00000000000000000, 1.347111479062088405E-15, 7.000000000000000000 ) ) ;
#197 = CARTESIAN_POINT ( 'NONE',  ( 0.000000000000000000, 0.000000000000000000, 7.000000000000000000 ) ) ;
#198 = DIRECTION ( 'NONE',  ( 0.000000000000000000, 0.000000000000000000, 1.000000000000000000 ) ) ;
#199 = PERSON_AND_ORGANIZATION ( #8, #64 ) ;
#200 = CC_DESIGN_SECURITY_CLASSIFICATION ( #73, ( #54 ) ) ;
#201 = PERSON_AND_ORGANIZATION_ROLE ( 'design_supplier' ) ;
#202 = DIRECTION ( 'NONE',  ( 0.000000000000000000, 0.000000000000000000, 1.000000000000000000 ) ) ;
#203 = EDGE_CURVE ( 'NONE', #89, #157, #219, .T. ) ;
#204 = ORIENTED_EDGE ( 'NONE', *, *, #303, .F. ) ;
#205 = CIRCLE ( 'NONE', #235, 11.00000000000000000 ) ;
#206 = ORIENTED_EDGE ( 'NONE', *, *, #12, .T. ) ;
#207 = AXIS2_PLACEMENT_3D ( 'NONE', #5, #292, #294 ) ;
#208 = DIRECTION ( 'NONE',  ( 0.000000000000000000, 0.000000000000000000, 1.000000000000000000 ) ) ;
#209 = COORDINATED_UNIVERSAL_TIME_OFFSET ( 1, 0, .AHEAD. ) ;
#210 = APPROVAL ( #188, 'NEURÈENÝ' ) ;
#211 = CIRCLE ( 'NONE', #101, 8.000000000000000000 ) ;
#212 = ORIENTED_EDGE ( 'NONE', *, *, #48, .F. ) ;
#213 = EDGE_LOOP ( 'NONE', ( #116, #160, #97, #266 ) ) ;
#214 = EDGE_LOOP ( 'NONE', ( #206, #234 ) ) ;
#215 = TOROIDAL_SURFACE ( 'NONE', #77, 8.200000000000001066, 0.2000000000000000111 ) ;
#216 = CARTESIAN_POINT ( 'NONE',  ( 0.000000000000000000, 0.000000000000000000, 7.000000000000000000 ) ) ;
#217 = AXIS2_PLACEMENT_3D ( 'NONE', #299, #250, #66 ) ;
#218 = FACE_OUTER_BOUND ( 'NONE', #232, .T. ) ;
#219 = LINE ( 'NONE', #196, #58 ) ;
#220 = EDGE_CURVE ( 'NONE', #288, #68, #273, .T. ) ;
#221 = DIRECTION ( 'NONE',  ( -0.000000000000000000, -0.000000000000000000, -1.000000000000000000 ) ) ;
#222 = DIRECTION ( 'NONE',  ( 1.000000000000000000, 0.000000000000000000, -0.000000000000000000 ) ) ;
#223 = PERSON_AND_ORGANIZATION ( #8, #64 ) ;
#224 = LINE ( 'NONE', #11, #253 ) ;
#225 = CC_DESIGN_APPROVAL ( #298, ( #54 ) ) ;
#226 = APPROVAL_STATUS ( 'not_yet_approved' ) ;
#227 = CC_DESIGN_PERSON_AND_ORGANIZATION_ASSIGNMENT ( #199, #201, ( #54 ) ) ;
#228 = CALENDAR_DATE ( 2022, 7, 7 ) ;
#229 = CARTESIAN_POINT ( 'NONE',  ( -8.000000000000000000, 0.000000000000000000, 7.199999999999998401 ) ) ;
#230 = ORIENTED_EDGE ( 'NONE', *, *, #261, .F. ) ;
#231 = FACE_OUTER_BOUND ( 'NONE', #49, .T. ) ;
#232 = EDGE_LOOP ( 'NONE', ( #133, #286 ) ) ;
#233 = EDGE_CURVE ( 'NONE', #187, #263, #6, .T. ) ;
#234 = ORIENTED_EDGE ( 'NONE', *, *, #269, .T. ) ;
#235 = AXIS2_PLACEMENT_3D ( 'NONE', #252, #255, #39 ) ;
#236 = DATE_AND_TIME ( #144, #148 ) ;
#237 = AXIS2_PLACEMENT_3D ( 'NONE', #52, #291, #123 ) ;
#238 = ORIENTED_EDGE ( 'NONE', *, *, #247, .T. ) ;
#239 = ORIENTED_EDGE ( 'NONE', *, *, #127, .T. ) ;
#240 = CARTESIAN_POINT ( 'NONE',  ( 11.00000000000000000, 1.347111479062088405E-15, 0.000000000000000000 ) ) ;
#241 = AXIS2_PLACEMENT_3D ( 'NONE', #165, #267, #30 ) ;
#242 = DIRECTION ( 'NONE',  ( 1.000000000000000000, 0.000000000000000000, 0.000000000000000000 ) ) ;
#243 = LINE ( 'NONE', #100, #153 ) ;
#244 = DIRECTION ( 'NONE',  ( 0.000000000000000000, 0.000000000000000000, 1.000000000000000000 ) ) ;
#245 = CYLINDRICAL_SURFACE ( 'NONE', #285, 8.000000000000000000 ) ;
#246 = AXIS2_PLACEMENT_3D ( 'NONE', #270, #244, #33 ) ;
#247 = EDGE_CURVE ( 'NONE', #263, #68, #164, .T. ) ;
#248 = APPROVAL_DATE_TIME ( #272, #298 ) ;
#249 = DATE_AND_TIME ( #135, #29 ) ;
#250 = DIRECTION ( 'NONE',  ( 0.000000000000000000, 0.000000000000000000, 1.000000000000000000 ) ) ;
#251 = CIRCLE ( 'NONE', #182, 8.000000000000000000 ) ;
#252 = CARTESIAN_POINT ( 'NONE',  ( 0.000000000000000000, 0.000000000000000000, 7.000000000000000000 ) ) ;
#253 = VECTOR ( 'NONE', #179, 1000.000000000000000 ) ;
#254 = PERSON_AND_ORGANIZATION ( #8, #64 ) ;
#255 = DIRECTION ( 'NONE',  ( 0.000000000000000000, 0.000000000000000000, 1.000000000000000000 ) ) ;
#256 = PERSON_AND_ORGANIZATION ( #8, #64 ) ;
#257 = CARTESIAN_POINT ( 'NONE',  ( 0.000000000000000000, 0.000000000000000000, 0.000000000000000000 ) ) ;
#258 = DIRECTION ( 'NONE',  ( 1.000000000000000000, 0.000000000000000000, 0.000000000000000000 ) ) ;
#259 = AXIS2_PLACEMENT_3D ( 'NONE', #80, #198, #105 ) ;
#260 = CIRCLE ( 'NONE', #140, 11.00000000000000000 ) ;
#261 = EDGE_CURVE ( 'NONE', #157, #306, #260, .T. ) ;
#262 = CALENDAR_DATE ( 2022, 7, 7 ) ;
#263 = VERTEX_POINT ( 'NONE', #172 ) ;
#264 = PERSON_AND_ORGANIZATION ( #8, #64 ) ;
#265 = AXIS2_PLACEMENT_3D ( 'NONE', #216, #221, #268 ) ;
#266 = ORIENTED_EDGE ( 'NONE', *, *, #95, .T. ) ;
#267 = DIRECTION ( 'NONE',  ( 0.000000000000000000, 0.000000000000000000, 1.000000000000000000 ) ) ;
#268 = DIRECTION ( 'NONE',  ( -1.000000000000000000, 0.000000000000000000, 0.000000000000000000 ) ) ;
#269 = EDGE_CURVE ( 'NONE', #187, #300, #280, .T. ) ;
#270 = CARTESIAN_POINT ( 'NONE',  ( 0.000000000000000000, 0.000000000000000000, 107.0000000000000142 ) ) ;
#271 = CARTESIAN_POINT ( 'NONE',  ( 0.000000000000000000, 0.000000000000000000, 107.0000000000000142 ) ) ;
#272 = DATE_AND_TIME ( #177, #115 ) ;
#273 = CIRCLE ( 'NONE', #237, 8.200000000000001066 ) ;
#274 = SECURITY_CLASSIFICATION_LEVEL ( 'unclassified' ) ;
#275 = CARTESIAN_POINT ( 'NONE',  ( -8.000000000000000000, 0.000000000000000000, 107.0000000000000142 ) ) ;
#276 = ADVANCED_FACE ( 'NONE', ( #57 ), #152, .T. ) ;
#277 = PERSON_AND_ORGANIZATION_ROLE ( 'design_owner' ) ;
#278 = AXIS2_PLACEMENT_3D ( 'NONE', #112, #119, #145 ) ;
#279 = EDGE_LOOP ( 'NONE', ( #14, #185, #88, #181 ) ) ;
#280 = CIRCLE ( 'NONE', #246, 8.000000000000000000 ) ;
#281 = APPLICATION_PROTOCOL_DEFINITION ( 'international standard', 'config_control_design', 1994, #27 ) ;
#282 = DIRECTION ( 'NONE',  ( -1.000000000000000000, 1.224646799147353207E-16, 0.000000000000000000 ) ) ;
#283 = CARTESIAN_POINT ( 'NONE',  ( -11.00000000000000000, 0.000000000000000000, 7.000000000000000000 ) ) ;
#284 = APPROVAL_ROLE ( '' ) ;
#285 = AXIS2_PLACEMENT_3D ( 'NONE', #9, #31, #125 ) ;
#286 = ORIENTED_EDGE ( 'NONE', *, *, #104, .T. ) ;
#287 = CC_DESIGN_DATE_AND_TIME_ASSIGNMENT ( #249, #10, ( #32 ) ) ;
#288 = VERTEX_POINT ( 'NONE', #40 ) ;
#289 = ORIENTED_EDGE ( 'NONE', *, *, #95, .F. ) ;
#290 = DIRECTION ( 'NONE',  ( -1.000000000000000000, 0.000000000000000000, 0.000000000000000000 ) ) ;
#291 = DIRECTION ( 'NONE',  ( -0.000000000000000000, -0.000000000000000000, -1.000000000000000000 ) ) ;
#292 = DIRECTION ( 'NONE',  ( 0.000000000000000000, -1.000000000000000000, 0.000000000000000000 ) ) ;
#293 = CC_DESIGN_PERSON_AND_ORGANIZATION_ASSIGNMENT ( #256, #277, ( #16 ) ) ;
#294 = DIRECTION ( 'NONE',  ( 0.000000000000000000, 0.000000000000000000, -1.000000000000000000 ) ) ;
#295 =( NAMED_UNIT ( * ) SI_UNIT ( $, .STERADIAN. ) SOLID_ANGLE_UNIT ( ) );
#296 = TOROIDAL_SURFACE ( 'NONE', #241, 8.200000000000001066, 0.2000000000000000111 ) ;
#297 = APPROVAL_PERSON_ORGANIZATION ( #264, #210, #284 ) ;
#298 = APPROVAL ( #226, 'NEURÈENÝ' ) ;
#299 = CARTESIAN_POINT ( 'NONE',  ( 0.000000000000000000, 0.000000000000000000, 0.000000000000000000 ) ) ;
#300 = VERTEX_POINT ( 'NONE', #275 ) ;
#301 = COORDINATED_UNIVERSAL_TIME_OFFSET ( 1, 0, .AHEAD. ) ;
#302 = CARTESIAN_POINT ( 'NONE',  ( 0.000000000000000000, 0.000000000000000000, 7.199999999999998401 ) ) ;
#303 = EDGE_CURVE ( 'NONE', #300, #65, #224, .T. ) ;
#304 = CARTESIAN_POINT ( 'NONE',  ( 0.000000000000000000, 0.000000000000000000, 7.199999999999998401 ) ) ;
#305 = AXIS2_PLACEMENT_3D ( 'NONE', #271, #129, #2 ) ;
#306 = VERTEX_POINT ( 'NONE', #84 ) ;
#307 = PLANE ( 'NONE',  #278 ) ;
ENDSEC;
END-ISO-10303-21;
