ISO-10303-21;
HEADER;
FILE_DESCRIPTION (( 'STEP AP203' ),
    '1' );
FILE_NAME ('3f79.STEP',
    '2022-07-07T09:42:44',
    ( '' ),
    ( '' ),
    'SwSTEP 2.0',
    'SolidWorks 2019',
    '' );
FILE_SCHEMA (( 'CONFIG_CONTROL_DESIGN' ));
ENDSEC;

DATA;
#1 = EDGE_CURVE ( 'NONE', #10, #193, #254, .T. ) ;
#2 = APPROVAL_DATE_TIME ( #261, #215 ) ;
#3 = MECHANICAL_CONTEXT ( 'NONE', #304, 'mechanical' ) ;
#4 = ORIENTED_EDGE ( 'NONE', *, *, #178, .T. ) ;
#5 = PERSON_AND_ORGANIZATION ( #227, #255 ) ;
#6 = CC_DESIGN_PERSON_AND_ORGANIZATION_ASSIGNMENT ( #26, #29, ( #157 ) ) ;
#7 = ORIENTED_EDGE ( 'NONE', *, *, #85, .F. ) ;
#8 = CARTESIAN_POINT ( 'NONE',  ( 6.450000000000000178, 0.000000000000000000, 7.200000000000011724 ) ) ;
#9 = AXIS2_PLACEMENT_3D ( 'NONE', #173, #267, #297 ) ;
#10 = VERTEX_POINT ( 'NONE', #226 ) ;
#11 = CARTESIAN_POINT ( 'NONE',  ( 0.000000000000000000, 0.000000000000000000, 7.200000000000011724 ) ) ;
#12 = VERTEX_POINT ( 'NONE', #176 ) ;
#13 = FACE_OUTER_BOUND ( 'NONE', #246, .T. ) ;
#14 = DIRECTION ( 'NONE',  ( -0.000000000000000000, -0.000000000000000000, -1.000000000000000000 ) ) ;
#15 = AXIS2_PLACEMENT_3D ( 'NONE', #118, #211, #305 ) ;
#16 = ORIENTED_EDGE ( 'NONE', *, *, #98, .T. ) ;
#17 = AXIS2_PLACEMENT_3D ( 'NONE', #151, #60, #80 ) ;
#18 = ORIENTED_EDGE ( 'NONE', *, *, #280, .F. ) ;
#19 = CARTESIAN_POINT ( 'NONE',  ( 0.000000000000000000, 0.000000000000000000, 7.000000000000000000 ) ) ;
#20 = CARTESIAN_POINT ( 'NONE',  ( -9.000000000000000000, 0.000000000000000000, 7.000000000000000000 ) ) ;
#21 = AXIS2_PLACEMENT_3D ( 'NONE', #19, #115, #116 ) ;
#22 = DIRECTION ( 'NONE',  ( 1.000000000000000000, 0.000000000000000000, 0.000000000000000000 ) ) ;
#23 = TOROIDAL_SURFACE ( 'NONE', #65, 6.450000000000000178, 0.2000000000000000111 ) ;
#24 = DIRECTION ( 'NONE',  ( 1.000000000000000000, 0.000000000000000000, 0.000000000000000000 ) ) ;
#25 = CC_DESIGN_APPROVAL ( #303, ( #157 ) ) ;
#26 = PERSON_AND_ORGANIZATION ( #227, #255 ) ;
#27 = CC_DESIGN_PERSON_AND_ORGANIZATION_ASSIGNMENT ( #104, #307, ( #194 ) ) ;
#28 = COORDINATED_UNIVERSAL_TIME_OFFSET ( 1, 0, .AHEAD. ) ;
#29 = PERSON_AND_ORGANIZATION_ROLE ( 'classification_officer' ) ;
#30 = CIRCLE ( 'NONE', #137, 6.250000000000000000 ) ;
#31 = APPROVAL_ROLE ( '' ) ;
#32 = ADVANCED_FACE ( 'NONE', ( #231 ), #23, .F. ) ;
#33 = ORIENTED_EDGE ( 'NONE', *, *, #208, .F. ) ;
#34 = VERTEX_POINT ( 'NONE', #270 ) ;
#35 = CARTESIAN_POINT ( 'NONE',  ( 0.000000000000000000, 0.000000000000000000, 7.000000000000000000 ) ) ;
#36 =( GEOMETRIC_REPRESENTATION_CONTEXT ( 3 ) GLOBAL_UNCERTAINTY_ASSIGNED_CONTEXT ( ( #162 ) ) GLOBAL_UNIT_ASSIGNED_CONTEXT ( ( #275, #74, #108 ) ) REPRESENTATION_CONTEXT ( 'NONE', 'WORKASPACE' ) );
#37 = ORIENTED_EDGE ( 'NONE', *, *, #178, .F. ) ;
#38 = DIRECTION ( 'NONE',  ( -0.000000000000000000, -0.000000000000000000, -1.000000000000000000 ) ) ;
#39 = ADVANCED_FACE ( 'NONE', ( #64 ), #301, .F. ) ;
#40 = CARTESIAN_POINT ( 'NONE',  ( 0.000000000000000000, 0.000000000000000000, 7.000000000000000000 ) ) ;
#41 = ORIENTED_EDGE ( 'NONE', *, *, #166, .F. ) ;
#42 = AXIS2_PLACEMENT_3D ( 'NONE', #241, #219, #75 ) ;
#43 = DIRECTION ( 'NONE',  ( 1.000000000000000000, 0.000000000000000000, 0.000000000000000000 ) ) ;
#44 = ADVANCED_FACE ( 'NONE', ( #251 ), #203, .T. ) ;
#45 = CIRCLE ( 'NONE', #214, 0.1999999999999996503 ) ;
#46 = LINE ( 'NONE', #20, #100 ) ;
#47 = APPLICATION_CONTEXT ( 'configuration controlled 3d designs of mechanical parts and assemblies' ) ;
#48 = DIRECTION ( 'NONE',  ( 1.000000000000000000, 0.000000000000000000, -0.000000000000000000 ) ) ;
#49 = LOCAL_TIME ( 11, 42, 44.00000000000000000, #106 ) ;
#50 = DESIGN_CONTEXT ( 'detailed design', #47, 'design' ) ;
#51 = FACE_OUTER_BOUND ( 'NONE', #149, .T. ) ;
#52 = APPROVAL_DATE_TIME ( #265, #134 ) ;
#53 = PERSON_AND_ORGANIZATION_ROLE ( 'design_owner' ) ;
#54 = APPROVAL_ROLE ( '' ) ;
#55 = DATE_AND_TIME ( #192, #218 ) ;
#56 = AXIS2_PLACEMENT_3D ( 'NONE', #71, #235, #22 ) ;
#57 = AXIS2_PLACEMENT_3D ( 'NONE', #11, #249, #299 ) ;
#58 = CARTESIAN_POINT ( 'NONE',  ( -6.250000000000000000, 0.000000000000000000, 257.0000000000000000 ) ) ;
#59 = DIRECTION ( 'NONE',  ( -0.000000000000000000, -0.000000000000000000, -1.000000000000000000 ) ) ;
#60 = DIRECTION ( 'NONE',  ( 0.000000000000000000, 0.000000000000000000, 1.000000000000000000 ) ) ;
#61 = APPROVAL_PERSON_ORGANIZATION ( #263, #215, #216 ) ;
#62 = CC_DESIGN_PERSON_AND_ORGANIZATION_ASSIGNMENT ( #189, #53, ( #87 ) ) ;
#63 = ORIENTED_EDGE ( 'NONE', *, *, #85, .T. ) ;
#64 = FACE_OUTER_BOUND ( 'NONE', #89, .T. ) ;
#65 = AXIS2_PLACEMENT_3D ( 'NONE', #228, #112, #296 ) ;
#66 = ORIENTED_EDGE ( 'NONE', *, *, #280, .T. ) ;
#67 = ORIENTED_EDGE ( 'NONE', *, *, #184, .T. ) ;
#68 = ADVANCED_FACE ( 'NONE', ( #13 ), #82, .T. ) ;
#69 = EDGE_LOOP ( 'NONE', ( #66, #152 ) ) ;
#70 = CARTESIAN_POINT ( 'NONE',  ( 6.250000000000000000, 7.654042494670957606E-16, 257.0000000000000000 ) ) ;
#71 = CARTESIAN_POINT ( 'NONE',  ( 0.000000000000000000, 0.000000000000000000, 257.0000000000000000 ) ) ;
#72 = DIRECTION ( 'NONE',  ( 0.000000000000000000, 0.000000000000000000, 1.000000000000000000 ) ) ;
#73 = PRODUCT_DEFINITION_FORMATION_WITH_SPECIFIED_SOURCE ( 'LIBOVOLNÝ', '', #87, .NOT_KNOWN. ) ;
#74 =( NAMED_UNIT ( * ) PLANE_ANGLE_UNIT ( ) SI_UNIT ( $, .RADIAN. ) );
#75 = DIRECTION ( 'NONE',  ( 1.000000000000000000, 0.000000000000000000, 0.000000000000000000 ) ) ;
#76 = EDGE_LOOP ( 'NONE', ( #232, #79 ) ) ;
#77 = APPROVAL_DATE_TIME ( #291, #303 ) ;
#78 = AXIS2_PLACEMENT_3D ( 'NONE', #35, #129, #293 ) ;
#79 = ORIENTED_EDGE ( 'NONE', *, *, #98, .F. ) ;
#80 = DIRECTION ( 'NONE',  ( 1.000000000000000000, 0.000000000000000000, 0.000000000000000000 ) ) ;
#81 = VERTEX_POINT ( 'NONE', #200 ) ;
#82 = CYLINDRICAL_SURFACE ( 'NONE', #196, 6.250000000000000000 ) ;
#83 = DIRECTION ( 'NONE',  ( -0.000000000000000000, -0.000000000000000000, -1.000000000000000000 ) ) ;
#84 = FACE_OUTER_BOUND ( 'NONE', #277, .T. ) ;
#85 = EDGE_CURVE ( 'NONE', #274, #245, #161, .T. ) ;
#86 = ORIENTED_EDGE ( 'NONE', *, *, #242, .T. ) ;
#87 = PRODUCT ( '3f79', '3f79', '', ( #3 ) ) ;
#88 = APPROVAL_PERSON_ORGANIZATION ( #144, #303, #31 ) ;
#89 = EDGE_LOOP ( 'NONE', ( #107, #4, #18, #253 ) ) ;
#90 = EDGE_CURVE ( 'NONE', #274, #155, #153, .T. ) ;
#91 = VERTEX_POINT ( 'NONE', #132 ) ;
#92 = FACE_OUTER_BOUND ( 'NONE', #262, .T. ) ;
#93 = ORIENTED_EDGE ( 'NONE', *, *, #101, .T. ) ;
#94 = CARTESIAN_POINT ( 'NONE',  ( 6.250000000000000000, 7.654042494670957606E-16, 257.0000000000000000 ) ) ;
#95 = AXIS2_PLACEMENT_3D ( 'NONE', #210, #72, #43 ) ;
#96 = DIRECTION ( 'NONE',  ( 1.000000000000000000, 0.000000000000000000, 0.000000000000000000 ) ) ;
#97 = CARTESIAN_POINT ( 'NONE',  ( 0.000000000000000000, 0.000000000000000000, 7.200000000000011724 ) ) ;
#98 = EDGE_CURVE ( 'NONE', #193, #199, #284, .T. ) ;
#99 = DIRECTION ( 'NONE',  ( 0.000000000000000000, 0.000000000000000000, 1.000000000000000000 ) ) ;
#100 = VECTOR ( 'NONE', #181, 1000.000000000000000 ) ;
#101 = EDGE_CURVE ( 'NONE', #12, #155, #187, .T. ) ;
#102 = PERSON_AND_ORGANIZATION_ROLE ( 'creator' ) ;
#103 = CIRCLE ( 'NONE', #236, 6.450000000000000178 ) ;
#104 = PERSON_AND_ORGANIZATION ( #227, #255 ) ;
#105 = APPROVAL_STATUS ( 'not_yet_approved' ) ;
#106 = COORDINATED_UNIVERSAL_TIME_OFFSET ( 1, 0, .AHEAD. ) ;
#107 = ORIENTED_EDGE ( 'NONE', *, *, #184, .F. ) ;
#108 =( NAMED_UNIT ( * ) SI_UNIT ( $, .STERADIAN. ) SOLID_ANGLE_UNIT ( ) );
#109 = PRODUCT_DEFINITION_SHAPE ( 'NONE', 'NONE',  #194 ) ;
#110 = CARTESIAN_POINT ( 'NONE',  ( 0.000000000000000000, 0.000000000000000000, 257.0000000000000000 ) ) ;
#111 = DIRECTION ( 'NONE',  ( 0.000000000000000000, 0.000000000000000000, -1.000000000000000000 ) ) ;
#112 = DIRECTION ( 'NONE',  ( 0.000000000000000000, 0.000000000000000000, 1.000000000000000000 ) ) ;
#113 = ORIENTED_EDGE ( 'NONE', *, *, #258, .T. ) ;
#114 = DIRECTION ( 'NONE',  ( -1.000000000000000000, 0.000000000000000000, 0.000000000000000000 ) ) ;
#115 = DIRECTION ( 'NONE',  ( -0.000000000000000000, -0.000000000000000000, -1.000000000000000000 ) ) ;
#116 = DIRECTION ( 'NONE',  ( -1.000000000000000000, 0.000000000000000000, 0.000000000000000000 ) ) ;
#117 = AXIS2_PLACEMENT_3D ( 'NONE', #252, #201, #206 ) ;
#118 = CARTESIAN_POINT ( 'NONE',  ( -6.450000000000000178, 7.898971854500428692E-16, 7.200000000000011724 ) ) ;
#119 = PLANE ( 'NONE',  #141 ) ;
#120 = CIRCLE ( 'NONE', #78, 9.000000000000000000 ) ;
#121 = EDGE_CURVE ( 'NONE', #12, #81, #45, .T. ) ;
#122 = LOCAL_TIME ( 11, 42, 44.00000000000000000, #191 ) ;
#123 = CALENDAR_DATE ( 2022, 7, 7 ) ;
#124 = CALENDAR_DATE ( 2022, 7, 7 ) ;
#125 = COORDINATED_UNIVERSAL_TIME_OFFSET ( 1, 0, .AHEAD. ) ;
#126 = EDGE_LOOP ( 'NONE', ( #272, #128, #113, #294 ) ) ;
#127 = CALENDAR_DATE ( 2022, 7, 7 ) ;
#128 = ORIENTED_EDGE ( 'NONE', *, *, #139, .F. ) ;
#129 = DIRECTION ( 'NONE',  ( 0.000000000000000000, 0.000000000000000000, 1.000000000000000000 ) ) ;
#130 = DIRECTION ( 'NONE',  ( -0.000000000000000000, -0.000000000000000000, -1.000000000000000000 ) ) ;
#131 = DIRECTION ( 'NONE',  ( -1.000000000000000000, 0.000000000000000000, 0.000000000000000000 ) ) ;
#132 = CARTESIAN_POINT ( 'NONE',  ( -6.450000000000000178, 7.898971854500428692E-16, 7.000000000000006217 ) ) ;
#133 = ORIENTED_EDGE ( 'NONE', *, *, #208, .T. ) ;
#134 = APPROVAL ( #105, 'NEURÈENÝ' ) ;
#135 = DIRECTION ( 'NONE',  ( -1.000000000000000000, 0.000000000000000000, 0.000000000000000000 ) ) ;
#136 = ORIENTED_EDGE ( 'NONE', *, *, #90, .F. ) ;
#137 = AXIS2_PLACEMENT_3D ( 'NONE', #97, #99, #96 ) ;
#138 = LINE ( 'NONE', #70, #204 ) ;
#139 = EDGE_CURVE ( 'NONE', #34, #10, #120, .T. ) ;
#140 = DIRECTION ( 'NONE',  ( 0.000000000000000000, 0.000000000000000000, 1.000000000000000000 ) ) ;
#141 = AXIS2_PLACEMENT_3D ( 'NONE', #163, #140, #183 ) ;
#142 = DIRECTION ( 'NONE',  ( -0.000000000000000000, -0.000000000000000000, -1.000000000000000000 ) ) ;
#143 = ORIENTED_EDGE ( 'NONE', *, *, #234, .T. ) ;
#144 = PERSON_AND_ORGANIZATION ( #227, #255 ) ;
#145 = APPLICATION_PROTOCOL_DEFINITION ( 'international standard', 'config_control_design', 1994, #47 ) ;
#146 = PERSON_AND_ORGANIZATION ( #227, #255 ) ;
#147 = CIRCLE ( 'NONE', #117, 6.450000000000000178 ) ;
#148 = APPROVAL_STATUS ( 'not_yet_approved' ) ;
#149 = EDGE_LOOP ( 'NONE', ( #63, #133 ) ) ;
#150 = ORIENTED_EDGE ( 'NONE', *, *, #242, .F. ) ;
#151 = CARTESIAN_POINT ( 'NONE',  ( 0.000000000000000000, 0.000000000000000000, 0.000000000000000000 ) ) ;
#152 = ORIENTED_EDGE ( 'NONE', *, *, #166, .T. ) ;
#153 = LINE ( 'NONE', #58, #240 ) ;
#154 = ORIENTED_EDGE ( 'NONE', *, *, #258, .F. ) ;
#155 = VERTEX_POINT ( 'NONE', #224 ) ;
#156 = DIRECTION ( 'NONE',  ( 0.000000000000000000, 0.000000000000000000, 1.000000000000000000 ) ) ;
#157 = SECURITY_CLASSIFICATION ( '', '', #239 ) ;
#158 = ORIENTED_EDGE ( 'NONE', *, *, #101, .F. ) ;
#159 = CARTESIAN_POINT ( 'NONE',  ( 0.000000000000000000, 0.000000000000000000, 7.000000000000000000 ) ) ;
#160 = ADVANCED_FACE ( 'NONE', ( #174 ), #271, .F. ) ;
#161 = CIRCLE ( 'NONE', #9, 6.250000000000000000 ) ;
#162 = UNCERTAINTY_MEASURE_WITH_UNIT (LENGTH_MEASURE( 1.000000000000000082E-05 ), #275, 'distance_accuracy_value', 'NONE');
#163 = CARTESIAN_POINT ( 'NONE',  ( 0.000000000000000000, 0.000000000000000000, 257.0000000000000000 ) ) ;
#164 = CIRCLE ( 'NONE', #15, 0.1999999999999996503 ) ;
#165 = VECTOR ( 'NONE', #130, 1000.000000000000000 ) ;
#166 = EDGE_CURVE ( 'NONE', #91, #81, #103, .T. ) ;
#167 = APPLICATION_PROTOCOL_DEFINITION ( 'international standard', 'config_control_design', 1994, #304 ) ;
#168 = DATE_AND_TIME ( #127, #122 ) ;
#169 = ADVANCED_FACE ( 'NONE', ( #51 ), #119, .T. ) ;
#170 = CIRCLE ( 'NONE', #95, 9.000000000000000000 ) ;
#171 = AXIS2_PLACEMENT_3D ( 'NONE', #250, #247, #229 ) ;
#172 = DIRECTION ( 'NONE',  ( 0.000000000000000000, 0.000000000000000000, 1.000000000000000000 ) ) ;
#173 = CARTESIAN_POINT ( 'NONE',  ( 0.000000000000000000, 0.000000000000000000, 257.0000000000000000 ) ) ;
#174 = FACE_OUTER_BOUND ( 'NONE', #76, .T. ) ;
#175 = EDGE_LOOP ( 'NONE', ( #150, #287, #16, #154 ) ) ;
#176 = CARTESIAN_POINT ( 'NONE',  ( 6.250000000000000000, 7.654042494670957606E-16, 7.200000000000011724 ) ) ;
#177 = APPROVAL_PERSON_ORGANIZATION ( #5, #134, #54 ) ;
#178 = EDGE_CURVE ( 'NONE', #155, #91, #164, .T. ) ;
#179 = ORIENTED_EDGE ( 'NONE', *, *, #234, .F. ) ;
#180 = PLANE ( 'NONE',  #190 ) ;
#181 = DIRECTION ( 'NONE',  ( -0.000000000000000000, -0.000000000000000000, -1.000000000000000000 ) ) ;
#182 = CARTESIAN_POINT ( 'NONE',  ( 9.000000000000000000, 1.102182119232617714E-15, 0.000000000000000000 ) ) ;
#183 = DIRECTION ( 'NONE',  ( 1.000000000000000000, 0.000000000000000000, -0.000000000000000000 ) ) ;
#184 = EDGE_CURVE ( 'NONE', #155, #12, #30, .T. ) ;
#185 = CC_DESIGN_APPROVAL ( #215, ( #194 ) ) ;
#186 = CLOSED_SHELL ( 'NONE', ( #39, #68, #44, #225, #264, #160, #268, #169, #32 ) ) ;
#187 = CIRCLE ( 'NONE', #171, 6.250000000000000000 ) ;
#188 = COORDINATED_UNIVERSAL_TIME_OFFSET ( 1, 0, .AHEAD. ) ;
#189 = PERSON_AND_ORGANIZATION ( #227, #255 ) ;
#190 = AXIS2_PLACEMENT_3D ( 'NONE', #276, #156, #198 ) ;
#191 = COORDINATED_UNIVERSAL_TIME_OFFSET ( 1, 0, .AHEAD. ) ;
#192 = CALENDAR_DATE ( 2022, 7, 7 ) ;
#193 = VERTEX_POINT ( 'NONE', #182 ) ;
#194 = PRODUCT_DEFINITION ( 'NEZNÁMÝ', '', #73, #50 ) ;
#195 = CALENDAR_DATE ( 2022, 7, 7 ) ;
#196 = AXIS2_PLACEMENT_3D ( 'NONE', #110, #59, #135 ) ;
#197 = DIRECTION ( 'NONE',  ( 0.000000000000000000, -1.000000000000000000, 0.000000000000000000 ) ) ;
#198 = DIRECTION ( 'NONE',  ( 1.000000000000000000, 0.000000000000000000, -0.000000000000000000 ) ) ;
#199 = VERTEX_POINT ( 'NONE', #279 ) ;
#200 = CARTESIAN_POINT ( 'NONE',  ( 6.450000000000000178, 0.000000000000000000, 7.000000000000006217 ) ) ;
#201 = DIRECTION ( 'NONE',  ( -0.000000000000000000, -0.000000000000000000, -1.000000000000000000 ) ) ;
#202 = CC_DESIGN_DATE_AND_TIME_ASSIGNMENT ( #168, #288, ( #194 ) ) ;
#203 = CYLINDRICAL_SURFACE ( 'NONE', #295, 9.000000000000000000 ) ;
#204 = VECTOR ( 'NONE', #302, 1000.000000000000000 ) ;
#205 = EDGE_LOOP ( 'NONE', ( #37, #158, #222, #41 ) ) ;
#206 = DIRECTION ( 'NONE',  ( 1.000000000000000000, 0.000000000000000000, 0.000000000000000000 ) ) ;
#207 = FACE_BOUND ( 'NONE', #69, .T. ) ;
#208 = EDGE_CURVE ( 'NONE', #245, #274, #306, .T. ) ;
#209 = DIRECTION ( 'NONE',  ( 0.000000000000000000, 0.000000000000000000, 1.000000000000000000 ) ) ;
#210 = CARTESIAN_POINT ( 'NONE',  ( 0.000000000000000000, 0.000000000000000000, 0.000000000000000000 ) ) ;
#211 = DIRECTION ( 'NONE',  ( 1.224646799147353207E-16, 1.000000000000000000, -0.000000000000000000 ) ) ;
#212 = EDGE_CURVE ( 'NONE', #199, #193, #170, .T. ) ;
#213 = CIRCLE ( 'NONE', #238, 9.000000000000000000 ) ;
#214 = AXIS2_PLACEMENT_3D ( 'NONE', #8, #197, #111 ) ;
#215 = APPROVAL ( #217, 'NEURÈENÝ' ) ;
#216 = APPROVAL_ROLE ( '' ) ;
#217 = APPROVAL_STATUS ( 'not_yet_approved' ) ;
#218 = LOCAL_TIME ( 11, 42, 44.00000000000000000, #125 ) ;
#219 = DIRECTION ( 'NONE',  ( 0.000000000000000000, 0.000000000000000000, 1.000000000000000000 ) ) ;
#220 = CC_DESIGN_PERSON_AND_ORGANIZATION_ASSIGNMENT ( #146, #243, ( #73 ) ) ;
#221 = MANIFOLD_SOLID_BREP ( 'Zaoblit1', #186 ) ;
#222 = ORIENTED_EDGE ( 'NONE', *, *, #121, .T. ) ;
#223 = CC_DESIGN_SECURITY_CLASSIFICATION ( #157, ( #73 ) ) ;
#224 = CARTESIAN_POINT ( 'NONE',  ( -6.250000000000000000, 0.000000000000000000, 7.200000000000011724 ) ) ;
#225 = ADVANCED_FACE ( 'NONE', ( #278 ), #256, .T. ) ;
#226 = CARTESIAN_POINT ( 'NONE',  ( 9.000000000000000000, 1.102182119232617714E-15, 7.000000000000000000 ) ) ;
#227 = PERSON ( 'NEURÈENÝ', 'NEURÈENÝ', 'NEURÈENÝ', ('NEURÈENÝ'), ('NEURÈENÝ'), ('NEURÈENÝ') ) ;
#228 = CARTESIAN_POINT ( 'NONE',  ( 0.000000000000000000, 0.000000000000000000, 7.200000000000011724 ) ) ;
#229 = DIRECTION ( 'NONE',  ( 1.000000000000000000, 0.000000000000000000, 0.000000000000000000 ) ) ;
#230 = ORIENTED_EDGE ( 'NONE', *, *, #90, .T. ) ;
#231 = FACE_OUTER_BOUND ( 'NONE', #205, .T. ) ;
#232 = ORIENTED_EDGE ( 'NONE', *, *, #212, .F. ) ;
#233 = CARTESIAN_POINT ( 'NONE',  ( 0.000000000000000000, 0.000000000000000000, 257.0000000000000000 ) ) ;
#234 = EDGE_CURVE ( 'NONE', #245, #12, #138, .T. ) ;
#235 = DIRECTION ( 'NONE',  ( 0.000000000000000000, 0.000000000000000000, 1.000000000000000000 ) ) ;
#236 = AXIS2_PLACEMENT_3D ( 'NONE', #282, #142, #24 ) ;
#237 = PRODUCT_RELATED_PRODUCT_CATEGORY ( 'detail', '', ( #87 ) ) ;
#238 = AXIS2_PLACEMENT_3D ( 'NONE', #159, #209, #257 ) ;
#239 = SECURITY_CLASSIFICATION_LEVEL ( 'unclassified' ) ;
#240 = VECTOR ( 'NONE', #83, 1000.000000000000000 ) ;
#241 = CARTESIAN_POINT ( 'NONE',  ( 0.000000000000000000, 0.000000000000000000, 0.000000000000000000 ) ) ;
#242 = EDGE_CURVE ( 'NONE', #10, #34, #213, .T. ) ;
#243 = PERSON_AND_ORGANIZATION_ROLE ( 'design_supplier' ) ;
#244 = PERSON_AND_ORGANIZATION ( #227, #255 ) ;
#245 = VERTEX_POINT ( 'NONE', #94 ) ;
#246 = EDGE_LOOP ( 'NONE', ( #33, #143, #93, #136 ) ) ;
#247 = DIRECTION ( 'NONE',  ( 0.000000000000000000, 0.000000000000000000, 1.000000000000000000 ) ) ;
#248 = CARTESIAN_POINT ( 'NONE',  ( 9.000000000000000000, 1.102182119232617714E-15, 7.000000000000000000 ) ) ;
#249 = DIRECTION ( 'NONE',  ( 0.000000000000000000, 0.000000000000000000, 1.000000000000000000 ) ) ;
#250 = CARTESIAN_POINT ( 'NONE',  ( 0.000000000000000000, 0.000000000000000000, 7.200000000000011724 ) ) ;
#251 = FACE_OUTER_BOUND ( 'NONE', #175, .T. ) ;
#252 = CARTESIAN_POINT ( 'NONE',  ( 0.000000000000000000, 0.000000000000000000, 7.000000000000000000 ) ) ;
#253 = ORIENTED_EDGE ( 'NONE', *, *, #121, .F. ) ;
#254 = LINE ( 'NONE', #248, #165 ) ;
#255 = ORGANIZATION ( 'NEURÈENÝ', 'NEURÈENÝ', '' ) ;
#256 = CYLINDRICAL_SURFACE ( 'NONE', #21, 9.000000000000000000 ) ;
#257 = DIRECTION ( 'NONE',  ( 1.000000000000000000, 0.000000000000000000, 0.000000000000000000 ) ) ;
#258 = EDGE_CURVE ( 'NONE', #34, #199, #46, .T. ) ;
#259 = LOCAL_TIME ( 11, 42, 44.00000000000000000, #188 ) ;
#260 = CC_DESIGN_PERSON_AND_ORGANIZATION_ASSIGNMENT ( #244, #102, ( #73 ) ) ;
#261 = DATE_AND_TIME ( #124, #283 ) ;
#262 = EDGE_LOOP ( 'NONE', ( #269, #86 ) ) ;
#263 = PERSON_AND_ORGANIZATION ( #227, #255 ) ;
#264 = ADVANCED_FACE ( 'NONE', ( #207, #92 ), #180, .T. ) ;
#265 = DATE_AND_TIME ( #123, #49 ) ;
#266 = AXIS2_PLACEMENT_3D ( 'NONE', #298, #172, #48 ) ;
#267 = DIRECTION ( 'NONE',  ( 0.000000000000000000, 0.000000000000000000, 1.000000000000000000 ) ) ;
#268 = ADVANCED_FACE ( 'NONE', ( #84 ), #273, .T. ) ;
#269 = ORIENTED_EDGE ( 'NONE', *, *, #139, .T. ) ;
#270 = CARTESIAN_POINT ( 'NONE',  ( -9.000000000000000000, 0.000000000000000000, 7.000000000000000000 ) ) ;
#271 = PLANE ( 'NONE',  #266 ) ;
#272 = ORIENTED_EDGE ( 'NONE', *, *, #1, .F. ) ;
#273 = CYLINDRICAL_SURFACE ( 'NONE', #286, 6.250000000000000000 ) ;
#274 = VERTEX_POINT ( 'NONE', #300 ) ;
#275 =( LENGTH_UNIT ( ) NAMED_UNIT ( * ) SI_UNIT ( .MILLI., .METRE. ) );
#276 = CARTESIAN_POINT ( 'NONE',  ( 0.000000000000000000, 0.000000000000000000, 7.000000000000000000 ) ) ;
#277 = EDGE_LOOP ( 'NONE', ( #179, #7, #230, #67 ) ) ;
#278 = FACE_OUTER_BOUND ( 'NONE', #126, .T. ) ;
#279 = CARTESIAN_POINT ( 'NONE',  ( -9.000000000000000000, 0.000000000000000000, 0.000000000000000000 ) ) ;
#280 = EDGE_CURVE ( 'NONE', #81, #91, #147, .T. ) ;
#281 = ADVANCED_BREP_SHAPE_REPRESENTATION ( '3f79', ( #221, #42 ), #36 ) ;
#282 = CARTESIAN_POINT ( 'NONE',  ( 0.000000000000000000, 0.000000000000000000, 7.000000000000000000 ) ) ;
#283 = LOCAL_TIME ( 11, 42, 44.00000000000000000, #28 ) ;
#284 = CIRCLE ( 'NONE', #17, 9.000000000000000000 ) ;
#285 = SHAPE_DEFINITION_REPRESENTATION ( #109, #281 ) ;
#286 = AXIS2_PLACEMENT_3D ( 'NONE', #233, #14, #114 ) ;
#287 = ORIENTED_EDGE ( 'NONE', *, *, #1, .T. ) ;
#288 = DATE_TIME_ROLE ( 'creation_date' ) ;
#289 = CC_DESIGN_DATE_AND_TIME_ASSIGNMENT ( #55, #290, ( #157 ) ) ;
#290 = DATE_TIME_ROLE ( 'classification_date' ) ;
#291 = DATE_AND_TIME ( #195, #259 ) ;
#292 = CC_DESIGN_APPROVAL ( #134, ( #73 ) ) ;
#293 = DIRECTION ( 'NONE',  ( 1.000000000000000000, 0.000000000000000000, 0.000000000000000000 ) ) ;
#294 = ORIENTED_EDGE ( 'NONE', *, *, #212, .T. ) ;
#295 = AXIS2_PLACEMENT_3D ( 'NONE', #40, #38, #131 ) ;
#296 = DIRECTION ( 'NONE',  ( 1.000000000000000000, 0.000000000000000000, 0.000000000000000000 ) ) ;
#297 = DIRECTION ( 'NONE',  ( 1.000000000000000000, 0.000000000000000000, 0.000000000000000000 ) ) ;
#298 = CARTESIAN_POINT ( 'NONE',  ( 0.000000000000000000, 0.000000000000000000, 0.000000000000000000 ) ) ;
#299 = DIRECTION ( 'NONE',  ( 1.000000000000000000, 0.000000000000000000, 0.000000000000000000 ) ) ;
#300 = CARTESIAN_POINT ( 'NONE',  ( -6.250000000000000000, 0.000000000000000000, 257.0000000000000000 ) ) ;
#301 = TOROIDAL_SURFACE ( 'NONE', #57, 6.450000000000000178, 0.2000000000000000111 ) ;
#302 = DIRECTION ( 'NONE',  ( -0.000000000000000000, -0.000000000000000000, -1.000000000000000000 ) ) ;
#303 = APPROVAL ( #148, 'NEURÈENÝ' ) ;
#304 = APPLICATION_CONTEXT ( 'configuration controlled 3d designs of mechanical parts and assemblies' ) ;
#305 = DIRECTION ( 'NONE',  ( -1.000000000000000000, 1.224646799147353454E-16, 0.000000000000000000 ) ) ;
#306 = CIRCLE ( 'NONE', #56, 6.250000000000000000 ) ;
#307 = PERSON_AND_ORGANIZATION_ROLE ( 'creator' ) ;
ENDSEC;
END-ISO-10303-21;
