ISO-10303-21;
HEADER;
FILE_DESCRIPTION (( 'STEP AP203' ),
    '1' );
FILE_NAME ('9e61.STEP',
    '2023-01-13T08:56:02',
    ( '' ),
    ( '' ),
    'SwSTEP 2.0',
    'SolidWorks 2019',
    '' );
FILE_SCHEMA (( 'CONFIG_CONTROL_DESIGN' ));
ENDSEC;

DATA;
#1 = VERTEX_POINT ( 'NONE', #232 ) ;
#2 = APPLICATION_PROTOCOL_DEFINITION ( 'international standard', 'config_control_design', 1994, #263 ) ;
#3 = MECHANICAL_CONTEXT ( 'NONE', #258, 'mechanical' ) ;
#4 = ADVANCED_FACE ( 'NONE', ( #245 ), #285, .F. ) ;
#5 = APPROVAL ( #216, 'NEURÈENÝ' ) ;
#6 = LOCAL_TIME ( 9, 56, 2.000000000000000000, #261 ) ;
#7 = ORIENTED_EDGE ( 'NONE', *, *, #106, .T. ) ;
#8 = CARTESIAN_POINT ( 'NONE',  ( 0.000000000000000000, 0.000000000000000000, 1.699999999999999956 ) ) ;
#9 = FACE_OUTER_BOUND ( 'NONE', #200, .T. ) ;
#10 = ADVANCED_FACE ( 'NONE', ( #229 ), #13, .T. ) ;
#11 = CIRCLE ( 'NONE', #130, 0.2000000000000000944 ) ;
#12 = FACE_OUTER_BOUND ( 'NONE', #290, .T. ) ;
#13 = CYLINDRICAL_SURFACE ( 'NONE', #219, 0.5500000000000000444 ) ;
#14 = LOCAL_TIME ( 9, 56, 2.000000000000000000, #192 ) ;
#15 = DIRECTION ( 'NONE',  ( -1.000000000000000000, 0.000000000000000000, 0.000000000000000000 ) ) ;
#16 = EDGE_LOOP ( 'NONE', ( #87, #249, #304, #22 ) ) ;
#17 = DIRECTION ( 'NONE',  ( -1.000000000000000000, 0.000000000000000000, 0.000000000000000000 ) ) ;
#18 = CARTESIAN_POINT ( 'NONE',  ( 0.000000000000000000, 0.000000000000000000, 1.899999999999999023 ) ) ;
#19 = AXIS2_PLACEMENT_3D ( 'NONE', #8, #241, #294 ) ;
#20 = CARTESIAN_POINT ( 'NONE',  ( 0.7500000000000000000, 0.000000000000000000, 1.899999999999999023 ) ) ;
#21 = LOCAL_TIME ( 9, 56, 2.000000000000000000, #208 ) ;
#22 = ORIENTED_EDGE ( 'NONE', *, *, #104, .T. ) ;
#23 = ADVANCED_FACE ( 'NONE', ( #9 ), #52, .F. ) ;
#24 = SHAPE_DEFINITION_REPRESENTATION ( #196, #278 ) ;
#25 = CIRCLE ( 'NONE', #302, 1.250000000000000000 ) ;
#26 = APPROVAL_ROLE ( '' ) ;
#27 = EDGE_CURVE ( 'NONE', #243, #174, #102, .T. ) ;
#28 = CLOSED_SHELL ( 'NONE', ( #4, #10, #240, #217, #280, #141, #70, #77, #23 ) ) ;
#29 = EDGE_LOOP ( 'NONE', ( #220, #227 ) ) ;
#30 = CARTESIAN_POINT ( 'NONE',  ( 0.000000000000000000, 0.000000000000000000, 1.699999999999999956 ) ) ;
#31 = LINE ( 'NONE', #148, #36 ) ;
#32 = ORIENTED_EDGE ( 'NONE', *, *, #85, .F. ) ;
#33 = CC_DESIGN_DATE_AND_TIME_ASSIGNMENT ( #89, #140, ( #101 ) ) ;
#34 = EDGE_LOOP ( 'NONE', ( #68, #135, #180, #293 ) ) ;
#35 = ORIENTED_EDGE ( 'NONE', *, *, #193, .F. ) ;
#36 = VECTOR ( 'NONE', #231, 1000.000000000000000 ) ;
#37 = DIRECTION ( 'NONE',  ( -0.000000000000000000, -0.000000000000000000, -1.000000000000000000 ) ) ;
#38 = CARTESIAN_POINT ( 'NONE',  ( -0.7500000000000000000, 9.184850993605149670E-17, 1.899999999999999023 ) ) ;
#39 = CARTESIAN_POINT ( 'NONE',  ( 0.000000000000000000, 0.000000000000000000, 0.000000000000000000 ) ) ;
#40 = FACE_OUTER_BOUND ( 'NONE', #29, .T. ) ;
#41 = ORIENTED_EDGE ( 'NONE', *, *, #49, .T. ) ;
#42 = DIRECTION ( 'NONE',  ( 0.000000000000000000, 0.000000000000000000, 1.000000000000000000 ) ) ;
#43 = ORIENTED_EDGE ( 'NONE', *, *, #136, .T. ) ;
#44 = DATE_TIME_ROLE ( 'classification_date' ) ;
#45 = PERSON_AND_ORGANIZATION ( #265, #63 ) ;
#46 = PERSON_AND_ORGANIZATION_ROLE ( 'classification_officer' ) ;
#47 = ORIENTED_EDGE ( 'NONE', *, *, #160, .F. ) ;
#48 = VECTOR ( 'NONE', #65, 1000.000000000000000 ) ;
#49 = EDGE_CURVE ( 'NONE', #243, #1, #275, .T. ) ;
#50 = CC_DESIGN_PERSON_AND_ORGANIZATION_ASSIGNMENT ( #283, #234, ( #264 ) ) ;
#51 = FACE_BOUND ( 'NONE', #298, .T. ) ;
#52 = TOROIDAL_SURFACE ( 'NONE', #110, 0.7500000000000000000, 0.2000000000000000111 ) ;
#53 = AXIS2_PLACEMENT_3D ( 'NONE', #119, #295, #79 ) ;
#54 = CARTESIAN_POINT ( 'NONE',  ( 0.000000000000000000, 0.000000000000000000, 1.699999999999999956 ) ) ;
#55 = CC_DESIGN_PERSON_AND_ORGANIZATION_ASSIGNMENT ( #91, #276, ( #101 ) ) ;
#56 = DIRECTION ( 'NONE',  ( 1.000000000000000000, 0.000000000000000000, 0.000000000000000000 ) ) ;
#57 = CARTESIAN_POINT ( 'NONE',  ( 0.000000000000000000, 0.000000000000000000, 1.699999999999999956 ) ) ;
#58 = DIRECTION ( 'NONE',  ( -0.000000000000000000, -0.000000000000000000, -1.000000000000000000 ) ) ;
#59 = CARTESIAN_POINT ( 'NONE',  ( 0.000000000000000000, 0.000000000000000000, 1.899999999999999023 ) ) ;
#60 = CARTESIAN_POINT ( 'NONE',  ( 0.5500000000000000444, 6.735557395310442516E-17, 81.69999999999998863 ) ) ;
#61 = CIRCLE ( 'NONE', #195, 0.5500000000000000444 ) ;
#62 = DIRECTION ( 'NONE',  ( 1.000000000000000000, 0.000000000000000000, -0.000000000000000000 ) ) ;
#63 = ORGANIZATION ( 'NEURÈENÝ', 'NEURÈENÝ', '' ) ;
#64 = DATE_AND_TIME ( #142, #6 ) ;
#65 = DIRECTION ( 'NONE',  ( -0.000000000000000000, -0.000000000000000000, -1.000000000000000000 ) ) ;
#66 = SECURITY_CLASSIFICATION_LEVEL ( 'unclassified' ) ;
#67 = DIRECTION ( 'NONE',  ( 1.000000000000000000, 0.000000000000000000, 0.000000000000000000 ) ) ;
#68 = ORIENTED_EDGE ( 'NONE', *, *, #114, .F. ) ;
#69 = AXIS2_PLACEMENT_3D ( 'NONE', #248, #252, #62 ) ;
#70 = ADVANCED_FACE ( 'NONE', ( #158 ), #152, .T. ) ;
#71 = PERSON_AND_ORGANIZATION ( #265, #63 ) ;
#72 = AXIS2_PLACEMENT_3D ( 'NONE', #30, #37, #289 ) ;
#73 = PRODUCT ( '9e61', '9e61', '', ( #3 ) ) ;
#74 = EDGE_CURVE ( 'NONE', #174, #149, #209, .T. ) ;
#75 = AXIS2_PLACEMENT_3D ( 'NONE', #81, #58, #67 ) ;
#76 =( NAMED_UNIT ( * ) SI_UNIT ( $, .STERADIAN. ) SOLID_ANGLE_UNIT ( ) );
#77 = ADVANCED_FACE ( 'NONE', ( #40 ), #154, .T. ) ;
#78 = DIRECTION ( 'NONE',  ( 0.000000000000000000, 0.000000000000000000, 1.000000000000000000 ) ) ;
#79 = DIRECTION ( 'NONE',  ( 1.000000000000000000, 0.000000000000000000, 0.000000000000000000 ) ) ;
#80 = DIRECTION ( 'NONE',  ( 0.000000000000000000, 0.000000000000000000, 1.000000000000000000 ) ) ;
#81 = CARTESIAN_POINT ( 'NONE',  ( 0.000000000000000000, 0.000000000000000000, 1.699999999999999956 ) ) ;
#82 = CARTESIAN_POINT ( 'NONE',  ( 1.250000000000000000, 1.530808498934191571E-16, 1.699999999999999956 ) ) ;
#83 = DIRECTION ( 'NONE',  ( 1.000000000000000000, 0.000000000000000000, 0.000000000000000000 ) ) ;
#84 =( LENGTH_UNIT ( ) NAMED_UNIT ( * ) SI_UNIT ( .MILLI., .METRE. ) );
#85 = EDGE_CURVE ( 'NONE', #1, #223, #145, .T. ) ;
#86 = DIRECTION ( 'NONE',  ( 0.000000000000000000, 0.000000000000000000, 1.000000000000000000 ) ) ;
#87 = ORIENTED_EDGE ( 'NONE', *, *, #151, .F. ) ;
#88 = CIRCLE ( 'NONE', #19, 1.250000000000000000 ) ;
#89 = DATE_AND_TIME ( #190, #14 ) ;
#90 = CARTESIAN_POINT ( 'NONE',  ( -1.250000000000000000, 0.000000000000000000, 0.000000000000000000 ) ) ;
#91 = PERSON_AND_ORGANIZATION ( #265, #63 ) ;
#92 = FACE_OUTER_BOUND ( 'NONE', #186, .T. ) ;
#93 = VERTEX_POINT ( 'NONE', #90 ) ;
#94 = CC_DESIGN_DATE_AND_TIME_ASSIGNMENT ( #64, #44, ( #171 ) ) ;
#95 = DATE_AND_TIME ( #184, #21 ) ;
#96 = AXIS2_PLACEMENT_3D ( 'NONE', #303, #255, #56 ) ;
#97 = APPROVAL_ROLE ( '' ) ;
#98 = CC_DESIGN_APPROVAL ( #291, ( #264 ) ) ;
#99 = PERSON_AND_ORGANIZATION ( #265, #63 ) ;
#100 = EDGE_CURVE ( 'NONE', #105, #93, #300, .T. ) ;
#101 = PRODUCT_DEFINITION ( 'NEZNÁMÝ', '', #264, #269 ) ;
#102 = CIRCLE ( 'NONE', #267, 0.5500000000000000444 ) ;
#103 = CIRCLE ( 'NONE', #157, 0.5500000000000000444 ) ;
#104 = EDGE_CURVE ( 'NONE', #93, #163, #225, .T. ) ;
#105 = VERTEX_POINT ( 'NONE', #271 ) ;
#106 = EDGE_CURVE ( 'NONE', #149, #253, #11, .T. ) ;
#107 = CARTESIAN_POINT ( 'NONE',  ( 0.000000000000000000, 0.000000000000000000, 1.899999999999999023 ) ) ;
#108 = ORIENTED_EDGE ( 'NONE', *, *, #193, .T. ) ;
#109 = FACE_OUTER_BOUND ( 'NONE', #16, .T. ) ;
#110 = AXIS2_PLACEMENT_3D ( 'NONE', #183, #42, #268 ) ;
#111 = DIRECTION ( 'NONE',  ( -0.000000000000000000, -0.000000000000000000, -1.000000000000000000 ) ) ;
#112 = CARTESIAN_POINT ( 'NONE',  ( 0.000000000000000000, 0.000000000000000000, 81.69999999999998863 ) ) ;
#113 = ORIENTED_EDGE ( 'NONE', *, *, #235, .F. ) ;
#114 = EDGE_CURVE ( 'NONE', #174, #243, #287, .T. ) ;
#115 = CARTESIAN_POINT ( 'NONE',  ( 1.250000000000000000, 1.530808498934191571E-16, 0.000000000000000000 ) ) ;
#116 = DIRECTION ( 'NONE',  ( -0.000000000000000000, -0.000000000000000000, -1.000000000000000000 ) ) ;
#117 = CARTESIAN_POINT ( 'NONE',  ( -0.7500000000000000000, 9.184850993605149670E-17, 1.699999999999999289 ) ) ;
#118 = DIRECTION ( 'NONE',  ( -1.000000000000000000, 0.000000000000000000, 0.000000000000000000 ) ) ;
#119 = CARTESIAN_POINT ( 'NONE',  ( 0.000000000000000000, 0.000000000000000000, 81.69999999999998863 ) ) ;
#120 = APPROVAL_PERSON_ORGANIZATION ( #71, #291, #137 ) ;
#121 = COORDINATED_UNIVERSAL_TIME_OFFSET ( 1, 0, .AHEAD. ) ;
#122 = CIRCLE ( 'NONE', #155, 1.250000000000000000 ) ;
#123 = CC_DESIGN_APPROVAL ( #5, ( #101 ) ) ;
#124 =( GEOMETRIC_REPRESENTATION_CONTEXT ( 3 ) GLOBAL_UNCERTAINTY_ASSIGNED_CONTEXT ( ( #222 ) ) GLOBAL_UNIT_ASSIGNED_CONTEXT ( ( #84, #127, #76 ) ) REPRESENTATION_CONTEXT ( 'NONE', 'WORKASPACE' ) );
#125 = ORIENTED_EDGE ( 'NONE', *, *, #257, .F. ) ;
#126 = DIRECTION ( 'NONE',  ( 1.000000000000000000, 0.000000000000000000, 0.000000000000000000 ) ) ;
#127 =( NAMED_UNIT ( * ) PLANE_ANGLE_UNIT ( ) SI_UNIT ( $, .RADIAN. ) );
#128 = AXIS2_PLACEMENT_3D ( 'NONE', #38, #131, #134 ) ;
#129 = ORIENTED_EDGE ( 'NONE', *, *, #172, .T. ) ;
#130 = AXIS2_PLACEMENT_3D ( 'NONE', #20, #138, #233 ) ;
#131 = DIRECTION ( 'NONE',  ( 1.224646799147353207E-16, 1.000000000000000000, -0.000000000000000000 ) ) ;
#132 = ORIENTED_EDGE ( 'NONE', *, *, #160, .T. ) ;
#133 = DIRECTION ( 'NONE',  ( 0.000000000000000000, 0.000000000000000000, 1.000000000000000000 ) ) ;
#134 = DIRECTION ( 'NONE',  ( -1.000000000000000000, 1.224646799147353454E-16, 0.000000000000000000 ) ) ;
#135 = ORIENTED_EDGE ( 'NONE', *, *, #74, .T. ) ;
#136 = EDGE_CURVE ( 'NONE', #223, #253, #221, .T. ) ;
#137 = APPROVAL_ROLE ( '' ) ;
#138 = DIRECTION ( 'NONE',  ( 0.000000000000000000, -1.000000000000000000, 0.000000000000000000 ) ) ;
#139 = ORIENTED_EDGE ( 'NONE', *, *, #100, .F. ) ;
#140 = DATE_TIME_ROLE ( 'creation_date' ) ;
#141 = ADVANCED_FACE ( 'NONE', ( #92 ), #165, .F. ) ;
#142 = CALENDAR_DATE ( 2023, 13, 1 ) ;
#143 = LOCAL_TIME ( 9, 56, 2.000000000000000000, #169 ) ;
#144 = CC_DESIGN_PERSON_AND_ORGANIZATION_ASSIGNMENT ( #262, #281, ( #264 ) ) ;
#145 = CIRCLE ( 'NONE', #128, 0.1999999999999999833 ) ;
#146 = CARTESIAN_POINT ( 'NONE',  ( 0.000000000000000000, 0.000000000000000000, 1.699999999999999956 ) ) ;
#147 = CIRCLE ( 'NONE', #215, 0.7500000000000000000 ) ;
#148 = CARTESIAN_POINT ( 'NONE',  ( 1.250000000000000000, 1.530808498934191571E-16, 1.699999999999999956 ) ) ;
#149 = VERTEX_POINT ( 'NONE', #182 ) ;
#150 = DIRECTION ( 'NONE',  ( 1.000000000000000000, 0.000000000000000000, 0.000000000000000000 ) ) ;
#151 = EDGE_CURVE ( 'NONE', #159, #163, #31, .T. ) ;
#152 = CYLINDRICAL_SURFACE ( 'NONE', #284, 0.5500000000000000444 ) ;
#153 = DIRECTION ( 'NONE',  ( 0.000000000000000000, 0.000000000000000000, 1.000000000000000000 ) ) ;
#154 = PLANE ( 'NONE',  #69 ) ;
#155 = AXIS2_PLACEMENT_3D ( 'NONE', #205, #292, #150 ) ;
#156 = EDGE_LOOP ( 'NONE', ( #211, #181, #41, #168 ) ) ;
#157 = AXIS2_PLACEMENT_3D ( 'NONE', #59, #80, #177 ) ;
#158 = FACE_OUTER_BOUND ( 'NONE', #156, .T. ) ;
#159 = VERTEX_POINT ( 'NONE', #82 ) ;
#160 = EDGE_CURVE ( 'NONE', #253, #223, #147, .T. ) ;
#161 = APPROVAL_STATUS ( 'not_yet_approved' ) ;
#162 = ORIENTED_EDGE ( 'NONE', *, *, #136, .F. ) ;
#163 = VERTEX_POINT ( 'NONE', #115 ) ;
#164 = PERSON_AND_ORGANIZATION ( #265, #63 ) ;
#165 = PLANE ( 'NONE',  #247 ) ;
#166 = ORIENTED_EDGE ( 'NONE', *, *, #85, .T. ) ;
#167 = DATE_AND_TIME ( #259, #143 ) ;
#168 = ORIENTED_EDGE ( 'NONE', *, *, #257, .T. ) ;
#169 = COORDINATED_UNIVERSAL_TIME_OFFSET ( 1, 0, .AHEAD. ) ;
#170 = AXIS2_PLACEMENT_3D ( 'NONE', #146, #246, #17 ) ;
#171 = SECURITY_CLASSIFICATION ( '', '', #66 ) ;
#172 = EDGE_CURVE ( 'NONE', #163, #93, #122, .T. ) ;
#173 = APPLICATION_PROTOCOL_DEFINITION ( 'international standard', 'config_control_design', 1994, #258 ) ;
#174 = VERTEX_POINT ( 'NONE', #224 ) ;
#175 = FACE_OUTER_BOUND ( 'NONE', #230, .T. ) ;
#176 = CARTESIAN_POINT ( 'NONE',  ( -0.5500000000000000444, 0.000000000000000000, 81.69999999999998863 ) ) ;
#177 = DIRECTION ( 'NONE',  ( 1.000000000000000000, 0.000000000000000000, 0.000000000000000000 ) ) ;
#178 = CARTESIAN_POINT ( 'NONE',  ( -1.250000000000000000, 0.000000000000000000, 1.699999999999999956 ) ) ;
#179 = DIRECTION ( 'NONE',  ( 1.000000000000000000, 0.000000000000000000, 0.000000000000000000 ) ) ;
#180 = ORIENTED_EDGE ( 'NONE', *, *, #235, .T. ) ;
#181 = ORIENTED_EDGE ( 'NONE', *, *, #27, .F. ) ;
#182 = CARTESIAN_POINT ( 'NONE',  ( 0.5500000000000000444, 6.735557395310442516E-17, 1.899999999999999023 ) ) ;
#183 = CARTESIAN_POINT ( 'NONE',  ( 0.000000000000000000, 0.000000000000000000, 1.899999999999999023 ) ) ;
#184 = CALENDAR_DATE ( 2023, 13, 1 ) ;
#185 = DIRECTION ( 'NONE',  ( -0.000000000000000000, -0.000000000000000000, -1.000000000000000000 ) ) ;
#186 = EDGE_LOOP ( 'NONE', ( #206, #199 ) ) ;
#187 = PRODUCT_RELATED_PRODUCT_CATEGORY ( 'detail', '', ( #73 ) ) ;
#188 = DIRECTION ( 'NONE',  ( 1.000000000000000000, 0.000000000000000000, 0.000000000000000000 ) ) ;
#189 = CARTESIAN_POINT ( 'NONE',  ( 0.000000000000000000, 0.000000000000000000, 0.000000000000000000 ) ) ;
#190 = CALENDAR_DATE ( 2023, 13, 1 ) ;
#191 = PERSON_AND_ORGANIZATION ( #265, #63 ) ;
#192 = COORDINATED_UNIVERSAL_TIME_OFFSET ( 1, 0, .AHEAD. ) ;
#193 = EDGE_CURVE ( 'NONE', #159, #105, #88, .T. ) ;
#194 = AXIS2_PLACEMENT_3D ( 'NONE', #18, #86, #210 ) ;
#195 = AXIS2_PLACEMENT_3D ( 'NONE', #107, #78, #201 ) ;
#196 = PRODUCT_DEFINITION_SHAPE ( 'NONE', 'NONE',  #101 ) ;
#197 = EDGE_CURVE ( 'NONE', #105, #159, #25, .T. ) ;
#198 = AXIS2_PLACEMENT_3D ( 'NONE', #57, #270, #244 ) ;
#199 = ORIENTED_EDGE ( 'NONE', *, *, #172, .F. ) ;
#200 = EDGE_LOOP ( 'NONE', ( #32, #113, #7, #162 ) ) ;
#201 = DIRECTION ( 'NONE',  ( 1.000000000000000000, 0.000000000000000000, 0.000000000000000000 ) ) ;
#202 = CYLINDRICAL_SURFACE ( 'NONE', #72, 1.250000000000000000 ) ;
#203 = VECTOR ( 'NONE', #111, 1000.000000000000000 ) ;
#204 = CC_DESIGN_SECURITY_CLASSIFICATION ( #171, ( #264 ) ) ;
#205 = CARTESIAN_POINT ( 'NONE',  ( 0.000000000000000000, 0.000000000000000000, 0.000000000000000000 ) ) ;
#206 = ORIENTED_EDGE ( 'NONE', *, *, #104, .F. ) ;
#207 = DIRECTION ( 'NONE',  ( -0.000000000000000000, -0.000000000000000000, -1.000000000000000000 ) ) ;
#208 = COORDINATED_UNIVERSAL_TIME_OFFSET ( 1, 0, .AHEAD. ) ;
#209 = LINE ( 'NONE', #60, #301 ) ;
#210 = DIRECTION ( 'NONE',  ( 1.000000000000000000, 0.000000000000000000, 0.000000000000000000 ) ) ;
#211 = ORIENTED_EDGE ( 'NONE', *, *, #74, .F. ) ;
#212 = DATE_AND_TIME ( #236, #238 ) ;
#213 = APPROVAL_STATUS ( 'not_yet_approved' ) ;
#214 = MANIFOLD_SOLID_BREP ( 'Zaoblit1', #28 ) ;
#215 = AXIS2_PLACEMENT_3D ( 'NONE', #299, #226, #126 ) ;
#216 = APPROVAL_STATUS ( 'not_yet_approved' ) ;
#217 = ADVANCED_FACE ( 'NONE', ( #109 ), #242, .T. ) ;
#218 = APPROVAL_PERSON_ORGANIZATION ( #99, #5, #26 ) ;
#219 = AXIS2_PLACEMENT_3D ( 'NONE', #112, #185, #118 ) ;
#220 = ORIENTED_EDGE ( 'NONE', *, *, #27, .T. ) ;
#221 = CIRCLE ( 'NONE', #75, 0.7500000000000000000 ) ;
#222 = UNCERTAINTY_MEASURE_WITH_UNIT (LENGTH_MEASURE( 1.000000000000000082E-05 ), #84, 'distance_accuracy_value', 'NONE');
#223 = VERTEX_POINT ( 'NONE', #117 ) ;
#224 = CARTESIAN_POINT ( 'NONE',  ( 0.5500000000000000444, 6.735557395310442516E-17, 81.69999999999998863 ) ) ;
#225 = CIRCLE ( 'NONE', #96, 1.250000000000000000 ) ;
#226 = DIRECTION ( 'NONE',  ( -0.000000000000000000, -0.000000000000000000, -1.000000000000000000 ) ) ;
#227 = ORIENTED_EDGE ( 'NONE', *, *, #114, .T. ) ;
#228 = ORIENTED_EDGE ( 'NONE', *, *, #151, .T. ) ;
#229 = FACE_OUTER_BOUND ( 'NONE', #34, .T. ) ;
#230 = EDGE_LOOP ( 'NONE', ( #274, #108 ) ) ;
#231 = DIRECTION ( 'NONE',  ( -0.000000000000000000, -0.000000000000000000, -1.000000000000000000 ) ) ;
#232 = CARTESIAN_POINT ( 'NONE',  ( -0.5500000000000000444, 0.000000000000000000, 1.899999999999999023 ) ) ;
#233 = DIRECTION ( 'NONE',  ( 0.000000000000000000, 0.000000000000000000, -1.000000000000000000 ) ) ;
#234 = PERSON_AND_ORGANIZATION_ROLE ( 'creator' ) ;
#235 = EDGE_CURVE ( 'NONE', #149, #1, #61, .T. ) ;
#236 = CALENDAR_DATE ( 2023, 13, 1 ) ;
#237 = APPROVAL_DATE_TIME ( #212, #239 ) ;
#238 = LOCAL_TIME ( 9, 56, 2.000000000000000000, #121 ) ;
#239 = APPROVAL ( #213, 'NEURÈENÝ' ) ;
#240 = ADVANCED_FACE ( 'NONE', ( #12 ), #202, .T. ) ;
#241 = DIRECTION ( 'NONE',  ( 0.000000000000000000, 0.000000000000000000, 1.000000000000000000 ) ) ;
#242 = CYLINDRICAL_SURFACE ( 'NONE', #170, 1.250000000000000000 ) ;
#243 = VERTEX_POINT ( 'NONE', #266 ) ;
#244 = DIRECTION ( 'NONE',  ( 1.000000000000000000, 0.000000000000000000, -0.000000000000000000 ) ) ;
#245 = FACE_OUTER_BOUND ( 'NONE', #256, .T. ) ;
#246 = DIRECTION ( 'NONE',  ( -0.000000000000000000, -0.000000000000000000, -1.000000000000000000 ) ) ;
#247 = AXIS2_PLACEMENT_3D ( 'NONE', #189, #307, #282 ) ;
#248 = CARTESIAN_POINT ( 'NONE',  ( 0.000000000000000000, 0.000000000000000000, 81.69999999999998863 ) ) ;
#249 = ORIENTED_EDGE ( 'NONE', *, *, #197, .F. ) ;
#250 = APPROVAL_PERSON_ORGANIZATION ( #45, #239, #97 ) ;
#251 = CC_DESIGN_PERSON_AND_ORGANIZATION_ASSIGNMENT ( #164, #46, ( #171 ) ) ;
#252 = DIRECTION ( 'NONE',  ( 0.000000000000000000, 0.000000000000000000, 1.000000000000000000 ) ) ;
#253 = VERTEX_POINT ( 'NONE', #272 ) ;
#254 = PERSON_AND_ORGANIZATION_ROLE ( 'design_owner' ) ;
#255 = DIRECTION ( 'NONE',  ( 0.000000000000000000, 0.000000000000000000, 1.000000000000000000 ) ) ;
#256 = EDGE_LOOP ( 'NONE', ( #125, #166, #47, #279 ) ) ;
#257 = EDGE_CURVE ( 'NONE', #1, #149, #103, .T. ) ;
#258 = APPLICATION_CONTEXT ( 'configuration controlled 3d designs of mechanical parts and assemblies' ) ;
#259 = CALENDAR_DATE ( 2023, 13, 1 ) ;
#260 = AXIS2_PLACEMENT_3D ( 'NONE', #39, #133, #188 ) ;
#261 = COORDINATED_UNIVERSAL_TIME_OFFSET ( 1, 0, .AHEAD. ) ;
#262 = PERSON_AND_ORGANIZATION ( #265, #63 ) ;
#263 = APPLICATION_CONTEXT ( 'configuration controlled 3d designs of mechanical parts and assemblies' ) ;
#264 = PRODUCT_DEFINITION_FORMATION_WITH_SPECIFIED_SOURCE ( 'LIBOVOLNÝ', '', #73, .NOT_KNOWN. ) ;
#265 = PERSON ( 'NEURÈENÝ', 'NEURÈENÝ', 'NEURÈENÝ', ('NEURÈENÝ'), ('NEURÈENÝ'), ('NEURÈENÝ') ) ;
#266 = CARTESIAN_POINT ( 'NONE',  ( -0.5500000000000000444, 0.000000000000000000, 81.69999999999998863 ) ) ;
#267 = AXIS2_PLACEMENT_3D ( 'NONE', #297, #277, #83 ) ;
#268 = DIRECTION ( 'NONE',  ( 1.000000000000000000, 0.000000000000000000, 0.000000000000000000 ) ) ;
#269 = DESIGN_CONTEXT ( 'detailed design', #263, 'design' ) ;
#270 = DIRECTION ( 'NONE',  ( 0.000000000000000000, 0.000000000000000000, 1.000000000000000000 ) ) ;
#271 = CARTESIAN_POINT ( 'NONE',  ( -1.250000000000000000, 0.000000000000000000, 1.699999999999999956 ) ) ;
#272 = CARTESIAN_POINT ( 'NONE',  ( 0.7500000000000000000, 0.000000000000000000, 1.699999999999999289 ) ) ;
#273 = CARTESIAN_POINT ( 'NONE',  ( 0.000000000000000000, 0.000000000000000000, 81.69999999999998863 ) ) ;
#274 = ORIENTED_EDGE ( 'NONE', *, *, #197, .T. ) ;
#275 = LINE ( 'NONE', #176, #203 ) ;
#276 = PERSON_AND_ORGANIZATION_ROLE ( 'creator' ) ;
#277 = DIRECTION ( 'NONE',  ( 0.000000000000000000, 0.000000000000000000, 1.000000000000000000 ) ) ;
#278 = ADVANCED_BREP_SHAPE_REPRESENTATION ( '9e61', ( #214, #260 ), #124 ) ;
#279 = ORIENTED_EDGE ( 'NONE', *, *, #106, .F. ) ;
#280 = ADVANCED_FACE ( 'NONE', ( #51, #175 ), #296, .T. ) ;
#281 = PERSON_AND_ORGANIZATION_ROLE ( 'design_supplier' ) ;
#282 = DIRECTION ( 'NONE',  ( 1.000000000000000000, 0.000000000000000000, -0.000000000000000000 ) ) ;
#283 = PERSON_AND_ORGANIZATION ( #265, #63 ) ;
#284 = AXIS2_PLACEMENT_3D ( 'NONE', #273, #207, #15 ) ;
#285 = TOROIDAL_SURFACE ( 'NONE', #194, 0.7500000000000000000, 0.2000000000000000111 ) ;
#286 = APPROVAL_DATE_TIME ( #95, #5 ) ;
#287 = CIRCLE ( 'NONE', #53, 0.5500000000000000444 ) ;
#288 = CC_DESIGN_PERSON_AND_ORGANIZATION_ASSIGNMENT ( #191, #254, ( #73 ) ) ;
#289 = DIRECTION ( 'NONE',  ( -1.000000000000000000, 0.000000000000000000, 0.000000000000000000 ) ) ;
#290 = EDGE_LOOP ( 'NONE', ( #35, #228, #129, #139 ) ) ;
#291 = APPROVAL ( #161, 'NEURÈENÝ' ) ;
#292 = DIRECTION ( 'NONE',  ( 0.000000000000000000, 0.000000000000000000, 1.000000000000000000 ) ) ;
#293 = ORIENTED_EDGE ( 'NONE', *, *, #49, .F. ) ;
#294 = DIRECTION ( 'NONE',  ( 1.000000000000000000, 0.000000000000000000, 0.000000000000000000 ) ) ;
#295 = DIRECTION ( 'NONE',  ( 0.000000000000000000, 0.000000000000000000, 1.000000000000000000 ) ) ;
#296 = PLANE ( 'NONE',  #198 ) ;
#297 = CARTESIAN_POINT ( 'NONE',  ( 0.000000000000000000, 0.000000000000000000, 81.69999999999998863 ) ) ;
#298 = EDGE_LOOP ( 'NONE', ( #132, #43 ) ) ;
#299 = CARTESIAN_POINT ( 'NONE',  ( 0.000000000000000000, 0.000000000000000000, 1.699999999999999956 ) ) ;
#300 = LINE ( 'NONE', #178, #48 ) ;
#301 = VECTOR ( 'NONE', #116, 1000.000000000000000 ) ;
#302 = AXIS2_PLACEMENT_3D ( 'NONE', #54, #153, #179 ) ;
#303 = CARTESIAN_POINT ( 'NONE',  ( 0.000000000000000000, 0.000000000000000000, 0.000000000000000000 ) ) ;
#304 = ORIENTED_EDGE ( 'NONE', *, *, #100, .T. ) ;
#305 = CC_DESIGN_APPROVAL ( #239, ( #171 ) ) ;
#306 = APPROVAL_DATE_TIME ( #167, #291 ) ;
#307 = DIRECTION ( 'NONE',  ( 0.000000000000000000, 0.000000000000000000, 1.000000000000000000 ) ) ;
ENDSEC;
END-ISO-10303-21;
