ISO-10303-21;
HEADER;
FILE_DESCRIPTION (( 'STEP AP203' ),
    '1' );
FILE_NAME ('a7b8.STEP',
    '2022-07-07T09:45:48',
    ( '' ),
    ( '' ),
    'SwSTEP 2.0',
    'SolidWorks 2019',
    '' );
FILE_SCHEMA (( 'CONFIG_CONTROL_DESIGN' ));
ENDSEC;

DATA;
#1 = CARTESIAN_POINT ( 'NONE',  ( 0.000000000000000000, 0.000000000000000000, 807.0000000000000000 ) ) ;
#2 = DIRECTION ( 'NONE',  ( -1.000000000000000000, 0.000000000000000000, 0.000000000000000000 ) ) ;
#3 = AXIS2_PLACEMENT_3D ( 'NONE', #113, #278, #66 ) ;
#4 = EDGE_CURVE ( 'NONE', #33, #128, #60, .T. ) ;
#5 = EDGE_LOOP ( 'NONE', ( #157, #154 ) ) ;
#6 = VERTEX_POINT ( 'NONE', #203 ) ;
#7 = EDGE_LOOP ( 'NONE', ( #82, #268, #31, #172 ) ) ;
#8 = ORIENTED_EDGE ( 'NONE', *, *, #57, .F. ) ;
#9 = CARTESIAN_POINT ( 'NONE',  ( 0.000000000000000000, 0.000000000000000000, 7.199999999999984190 ) ) ;
#10 = AXIS2_PLACEMENT_3D ( 'NONE', #137, #204, #299 ) ;
#11 = PRODUCT_RELATED_PRODUCT_CATEGORY ( 'detail', '', ( #259 ) ) ;
#12 = VERTEX_POINT ( 'NONE', #273 ) ;
#13 = APPROVAL_PERSON_ORGANIZATION ( #126, #165, #27 ) ;
#14 = DIRECTION ( 'NONE',  ( 0.000000000000000000, 0.000000000000000000, 1.000000000000000000 ) ) ;
#15 = CARTESIAN_POINT ( 'NONE',  ( 0.000000000000000000, 0.000000000000000000, 7.199999999999984190 ) ) ;
#16 = CC_DESIGN_DATE_AND_TIME_ASSIGNMENT ( #195, #149, ( #194 ) ) ;
#17 =( NAMED_UNIT ( * ) PLANE_ANGLE_UNIT ( ) SI_UNIT ( $, .RADIAN. ) );
#18 = AXIS2_PLACEMENT_3D ( 'NONE', #182, #167, #139 ) ;
#19 = FACE_OUTER_BOUND ( 'NONE', #174, .T. ) ;
#20 = DATE_TIME_ROLE ( 'creation_date' ) ;
#21 = LOCAL_TIME ( 11, 45, 48.00000000000000000, #288 ) ;
#22 = DIRECTION ( 'NONE',  ( 0.000000000000000000, 0.000000000000000000, 1.000000000000000000 ) ) ;
#23 = CARTESIAN_POINT ( 'NONE',  ( 0.000000000000000000, 0.000000000000000000, 0.000000000000000000 ) ) ;
#24 = CYLINDRICAL_SURFACE ( 'NONE', #301, 6.000000000000000888 ) ;
#25 = EDGE_CURVE ( 'NONE', #12, #253, #151, .T. ) ;
#26 =( GEOMETRIC_REPRESENTATION_CONTEXT ( 3 ) GLOBAL_UNCERTAINTY_ASSIGNED_CONTEXT ( ( #86 ) ) GLOBAL_UNIT_ASSIGNED_CONTEXT ( ( #225, #17, #262 ) ) REPRESENTATION_CONTEXT ( 'NONE', 'WORKASPACE' ) );
#27 = APPROVAL_ROLE ( '' ) ;
#28 = ADVANCED_FACE ( 'NONE', ( #110 ), #217, .T. ) ;
#29 = VERTEX_POINT ( 'NONE', #200 ) ;
#30 = VERTEX_POINT ( 'NONE', #295 ) ;
#31 = ORIENTED_EDGE ( 'NONE', *, *, #305, .T. ) ;
#32 = CARTESIAN_POINT ( 'NONE',  ( 0.000000000000000000, 0.000000000000000000, 7.000000000000000000 ) ) ;
#33 = VERTEX_POINT ( 'NONE', #199 ) ;
#34 = AXIS2_PLACEMENT_3D ( 'NONE', #1, #93, #119 ) ;
#35 = ORIENTED_EDGE ( 'NONE', *, *, #190, .T. ) ;
#36 = DIRECTION ( 'NONE',  ( 1.000000000000000000, 0.000000000000000000, 0.000000000000000000 ) ) ;
#37 = EDGE_CURVE ( 'NONE', #30, #128, #251, .T. ) ;
#38 = DIRECTION ( 'NONE',  ( 0.000000000000000000, 0.000000000000000000, 1.000000000000000000 ) ) ;
#39 = FACE_OUTER_BOUND ( 'NONE', #249, .T. ) ;
#40 = CC_DESIGN_PERSON_AND_ORGANIZATION_ASSIGNMENT ( #49, #239, ( #207 ) ) ;
#41 = PLANE ( 'NONE',  #18 ) ;
#42 = DIRECTION ( 'NONE',  ( 1.000000000000000000, 0.000000000000000000, 0.000000000000000000 ) ) ;
#43 = PLANE ( 'NONE',  #264 ) ;
#44 = COORDINATED_UNIVERSAL_TIME_OFFSET ( 1, 0, .AHEAD. ) ;
#45 = LOCAL_TIME ( 11, 45, 48.00000000000000000, #284 ) ;
#46 = DIRECTION ( 'NONE',  ( 1.000000000000000000, 0.000000000000000000, 0.000000000000000000 ) ) ;
#47 = LINE ( 'NONE', #97, #77 ) ;
#48 = LOCAL_TIME ( 11, 45, 48.00000000000000000, #44 ) ;
#49 = PERSON_AND_ORGANIZATION ( #255, #141 ) ;
#50 = AXIS2_PLACEMENT_3D ( 'NONE', #32, #134, #83 ) ;
#51 = LOCAL_TIME ( 11, 45, 48.00000000000000000, #125 ) ;
#52 = ADVANCED_FACE ( 'NONE', ( #294 ), #221, .T. ) ;
#53 = SECURITY_CLASSIFICATION_LEVEL ( 'unclassified' ) ;
#54 = CALENDAR_DATE ( 2022, 7, 7 ) ;
#55 = VERTEX_POINT ( 'NONE', #177 ) ;
#56 = ORIENTED_EDGE ( 'NONE', *, *, #57, .T. ) ;
#57 = EDGE_CURVE ( 'NONE', #128, #30, #117, .T. ) ;
#58 = VERTEX_POINT ( 'NONE', #272 ) ;
#59 = ORIENTED_EDGE ( 'NONE', *, *, #127, .F. ) ;
#60 = LINE ( 'NONE', #84, #241 ) ;
#61 = CIRCLE ( 'NONE', #227, 6.200000000000001066 ) ;
#62 = ORIENTED_EDGE ( 'NONE', *, *, #103, .T. ) ;
#63 = DIRECTION ( 'NONE',  ( -0.000000000000000000, -0.000000000000000000, -1.000000000000000000 ) ) ;
#64 = LOCAL_TIME ( 11, 45, 48.00000000000000000, #208 ) ;
#65 = EDGE_CURVE ( 'NONE', #253, #55, #275, .T. ) ;
#66 = DIRECTION ( 'NONE',  ( 1.000000000000000000, 0.000000000000000000, 0.000000000000000000 ) ) ;
#67 = DIRECTION ( 'NONE',  ( -0.000000000000000000, -0.000000000000000000, -1.000000000000000000 ) ) ;
#68 = CARTESIAN_POINT ( 'NONE',  ( 6.000000000000000888, 7.347880794884120722E-16, 7.199999999999984190 ) ) ;
#69 = CARTESIAN_POINT ( 'NONE',  ( -6.000000000000000888, 0.000000000000000000, 807.0000000000000000 ) ) ;
#70 = CYLINDRICAL_SURFACE ( 'NONE', #34, 6.000000000000000888 ) ;
#71 = CIRCLE ( 'NONE', #201, 9.000000000000000000 ) ;
#72 = APPLICATION_CONTEXT ( 'configuration controlled 3d designs of mechanical parts and assemblies' ) ;
#73 = EDGE_CURVE ( 'NONE', #33, #29, #185, .T. ) ;
#74 = PERSON_AND_ORGANIZATION_ROLE ( 'design_owner' ) ;
#75 = PERSON_AND_ORGANIZATION ( #255, #141 ) ;
#76 = CC_DESIGN_PERSON_AND_ORGANIZATION_ASSIGNMENT ( #75, #99, ( #207 ) ) ;
#77 = VECTOR ( 'NONE', #286, 1000.000000000000000 ) ;
#78 = ORIENTED_EDGE ( 'NONE', *, *, #277, .F. ) ;
#79 = CIRCLE ( 'NONE', #10, 6.200000000000001066 ) ;
#80 = EDGE_CURVE ( 'NONE', #29, #30, #283, .T. ) ;
#81 = EDGE_LOOP ( 'NONE', ( #245, #222, #56, #158 ) ) ;
#82 = ORIENTED_EDGE ( 'NONE', *, *, #65, .F. ) ;
#83 = DIRECTION ( 'NONE',  ( -1.000000000000000000, 0.000000000000000000, 0.000000000000000000 ) ) ;
#84 = CARTESIAN_POINT ( 'NONE',  ( 6.000000000000000888, 7.347880794884120722E-16, 807.0000000000000000 ) ) ;
#85 = DIRECTION ( 'NONE',  ( 0.000000000000000000, 0.000000000000000000, 1.000000000000000000 ) ) ;
#86 = UNCERTAINTY_MEASURE_WITH_UNIT (LENGTH_MEASURE( 1.000000000000000082E-05 ), #225, 'distance_accuracy_value', 'NONE');
#87 = DIRECTION ( 'NONE',  ( 1.000000000000000000, 0.000000000000000000, -0.000000000000000000 ) ) ;
#88 = CARTESIAN_POINT ( 'NONE',  ( 0.000000000000000000, 0.000000000000000000, 7.000000000000000000 ) ) ;
#89 = ADVANCED_FACE ( 'NONE', ( #19 ), #131, .F. ) ;
#90 = DATE_AND_TIME ( #205, #64 ) ;
#91 = AXIS2_PLACEMENT_3D ( 'NONE', #15, #22, #223 ) ;
#92 = CARTESIAN_POINT ( 'NONE',  ( 0.000000000000000000, 0.000000000000000000, 807.0000000000000000 ) ) ;
#93 = DIRECTION ( 'NONE',  ( -0.000000000000000000, -0.000000000000000000, -1.000000000000000000 ) ) ;
#94 = DIRECTION ( 'NONE',  ( 0.000000000000000000, 0.000000000000000000, 1.000000000000000000 ) ) ;
#95 = APPROVAL_ROLE ( '' ) ;
#96 = ADVANCED_FACE ( 'NONE', ( #39 ), #161, .T. ) ;
#97 = CARTESIAN_POINT ( 'NONE',  ( -9.000000000000000000, 0.000000000000000000, 7.000000000000000000 ) ) ;
#98 = APPLICATION_CONTEXT ( 'configuration controlled 3d designs of mechanical parts and assemblies' ) ;
#99 = PERSON_AND_ORGANIZATION_ROLE ( 'design_supplier' ) ;
#100 = AXIS2_PLACEMENT_3D ( 'NONE', #261, #169, #42 ) ;
#101 = VECTOR ( 'NONE', #63, 1000.000000000000000 ) ;
#102 = ORIENTED_EDGE ( 'NONE', *, *, #80, .T. ) ;
#103 = EDGE_CURVE ( 'NONE', #128, #58, #133, .T. ) ;
#104 = ADVANCED_BREP_SHAPE_REPRESENTATION ( 'a7b8', ( #300, #162 ), #26 ) ;
#105 = TOROIDAL_SURFACE ( 'NONE', #145, 6.200000000000001066, 0.2000000000000000111 ) ;
#106 = CARTESIAN_POINT ( 'NONE',  ( 0.000000000000000000, 0.000000000000000000, 7.000000000000000000 ) ) ;
#107 = AXIS2_PLACEMENT_3D ( 'NONE', #296, #244, #197 ) ;
#108 = EDGE_LOOP ( 'NONE', ( #153, #219 ) ) ;
#109 = ADVANCED_FACE ( 'NONE', ( #142, #210 ), #41, .T. ) ;
#110 = FACE_OUTER_BOUND ( 'NONE', #7, .T. ) ;
#111 = CARTESIAN_POINT ( 'NONE',  ( 0.000000000000000000, 0.000000000000000000, 7.199999999999984190 ) ) ;
#112 = EDGE_LOOP ( 'NONE', ( #155, #132 ) ) ;
#113 = CARTESIAN_POINT ( 'NONE',  ( 0.000000000000000000, 0.000000000000000000, 0.000000000000000000 ) ) ;
#114 = APPROVAL_ROLE ( '' ) ;
#115 = CARTESIAN_POINT ( 'NONE',  ( 0.000000000000000000, 0.000000000000000000, 7.000000000000000000 ) ) ;
#116 = CARTESIAN_POINT ( 'NONE',  ( -6.200000000000001066, 7.592810154713590821E-16, 7.199999999999984190 ) ) ;
#117 = CIRCLE ( 'NONE', #229, 6.000000000000000888 ) ;
#118 = FACE_OUTER_BOUND ( 'NONE', #81, .T. ) ;
#119 = DIRECTION ( 'NONE',  ( -1.000000000000000000, 0.000000000000000000, 0.000000000000000000 ) ) ;
#120 = APPLICATION_PROTOCOL_DEFINITION ( 'international standard', 'config_control_design', 1994, #72 ) ;
#121 = CIRCLE ( 'NONE', #100, 6.000000000000000888 ) ;
#122 = EDGE_CURVE ( 'NONE', #253, #12, #71, .T. ) ;
#123 = PERSON_AND_ORGANIZATION_ROLE ( 'classification_officer' ) ;
#124 = APPROVAL_DATE_TIME ( #191, #165 ) ;
#125 = COORDINATED_UNIVERSAL_TIME_OFFSET ( 1, 0, .AHEAD. ) ;
#126 = PERSON_AND_ORGANIZATION ( #255, #141 ) ;
#127 = EDGE_CURVE ( 'NONE', #271, #58, #79, .T. ) ;
#128 = VERTEX_POINT ( 'NONE', #68 ) ;
#129 = EDGE_LOOP ( 'NONE', ( #198, #214, #130, #247 ) ) ;
#130 = ORIENTED_EDGE ( 'NONE', *, *, #212, .F. ) ;
#131 = TOROIDAL_SURFACE ( 'NONE', #91, 6.200000000000001066, 0.2000000000000000111 ) ;
#132 = ORIENTED_EDGE ( 'NONE', *, *, #122, .T. ) ;
#133 = CIRCLE ( 'NONE', #156, 0.1999999999999996503 ) ;
#134 = DIRECTION ( 'NONE',  ( -0.000000000000000000, -0.000000000000000000, -1.000000000000000000 ) ) ;
#135 = DIRECTION ( 'NONE',  ( 1.000000000000000000, 0.000000000000000000, 0.000000000000000000 ) ) ;
#136 = DIRECTION ( 'NONE',  ( 0.000000000000000000, -1.000000000000000000, 0.000000000000000000 ) ) ;
#137 = CARTESIAN_POINT ( 'NONE',  ( 0.000000000000000000, 0.000000000000000000, 7.000000000000000000 ) ) ;
#138 = FACE_OUTER_BOUND ( 'NONE', #242, .T. ) ;
#139 = DIRECTION ( 'NONE',  ( 1.000000000000000000, 0.000000000000000000, -0.000000000000000000 ) ) ;
#140 = CALENDAR_DATE ( 2022, 7, 7 ) ;
#141 = ORGANIZATION ( 'NEURÈENÝ', 'NEURÈENÝ', '' ) ;
#142 = FACE_BOUND ( 'NONE', #108, .T. ) ;
#143 = DIRECTION ( 'NONE',  ( 0.000000000000000000, 0.000000000000000000, 1.000000000000000000 ) ) ;
#144 = PERSON_AND_ORGANIZATION ( #255, #141 ) ;
#145 = AXIS2_PLACEMENT_3D ( 'NONE', #306, #94, #46 ) ;
#146 = AXIS2_PLACEMENT_3D ( 'NONE', #106, #293, #175 ) ;
#147 = DATE_AND_TIME ( #173, #45 ) ;
#148 = EDGE_CURVE ( 'NONE', #6, #55, #240, .T. ) ;
#149 = DATE_TIME_ROLE ( 'classification_date' ) ;
#150 = AXIS2_PLACEMENT_3D ( 'NONE', #116, #257, #164 ) ;
#151 = CIRCLE ( 'NONE', #107, 9.000000000000000000 ) ;
#152 = ORIENTED_EDGE ( 'NONE', *, *, #290, .T. ) ;
#153 = ORIENTED_EDGE ( 'NONE', *, *, #212, .T. ) ;
#154 = ORIENTED_EDGE ( 'NONE', *, *, #190, .F. ) ;
#155 = ORIENTED_EDGE ( 'NONE', *, *, #25, .T. ) ;
#156 = AXIS2_PLACEMENT_3D ( 'NONE', #276, #136, #186 ) ;
#157 = ORIENTED_EDGE ( 'NONE', *, *, #148, .F. ) ;
#158 = ORIENTED_EDGE ( 'NONE', *, *, #80, .F. ) ;
#159 = CARTESIAN_POINT ( 'NONE',  ( 0.000000000000000000, 0.000000000000000000, 807.0000000000000000 ) ) ;
#160 = DESIGN_CONTEXT ( 'detailed design', #98, 'design' ) ;
#161 = PLANE ( 'NONE',  #303 ) ;
#162 = AXIS2_PLACEMENT_3D ( 'NONE', #23, #143, #304 ) ;
#163 = DIRECTION ( 'NONE',  ( 1.000000000000000000, 0.000000000000000000, 0.000000000000000000 ) ) ;
#164 = DIRECTION ( 'NONE',  ( -1.000000000000000000, 1.224646799147353454E-16, 0.000000000000000000 ) ) ;
#165 = APPROVAL ( #238, 'NEURÈENÝ' ) ;
#166 = DIRECTION ( 'NONE',  ( -0.000000000000000000, -0.000000000000000000, -1.000000000000000000 ) ) ;
#167 = DIRECTION ( 'NONE',  ( 0.000000000000000000, 0.000000000000000000, 1.000000000000000000 ) ) ;
#168 = CARTESIAN_POINT ( 'NONE',  ( -6.200000000000001066, 7.592810154713590821E-16, 6.999999999999992006 ) ) ;
#169 = DIRECTION ( 'NONE',  ( 0.000000000000000000, 0.000000000000000000, 1.000000000000000000 ) ) ;
#170 = APPLICATION_PROTOCOL_DEFINITION ( 'international standard', 'config_control_design', 1994, #98 ) ;
#171 = AXIS2_PLACEMENT_3D ( 'NONE', #183, #258, #254 ) ;
#172 = ORIENTED_EDGE ( 'NONE', *, *, #148, .T. ) ;
#173 = CALENDAR_DATE ( 2022, 7, 7 ) ;
#174 = EDGE_LOOP ( 'NONE', ( #78, #8, #62, #59 ) ) ;
#175 = DIRECTION ( 'NONE',  ( -1.000000000000000000, 0.000000000000000000, 0.000000000000000000 ) ) ;
#176 = ORIENTED_EDGE ( 'NONE', *, *, #122, .F. ) ;
#177 = CARTESIAN_POINT ( 'NONE',  ( 9.000000000000000000, 1.102182119232617714E-15, 0.000000000000000000 ) ) ;
#178 = CIRCLE ( 'NONE', #150, 0.1999999999999996503 ) ;
#179 = ORIENTED_EDGE ( 'NONE', *, *, #290, .F. ) ;
#180 = DIRECTION ( 'NONE',  ( 1.000000000000000000, 0.000000000000000000, 0.000000000000000000 ) ) ;
#181 = CC_DESIGN_PERSON_AND_ORGANIZATION_ASSIGNMENT ( #192, #123, ( #194 ) ) ;
#182 = CARTESIAN_POINT ( 'NONE',  ( 0.000000000000000000, 0.000000000000000000, 7.000000000000000000 ) ) ;
#183 = CARTESIAN_POINT ( 'NONE',  ( 0.000000000000000000, 0.000000000000000000, 0.000000000000000000 ) ) ;
#184 = CC_DESIGN_APPROVAL ( #193, ( #233 ) ) ;
#185 = CIRCLE ( 'NONE', #218, 6.000000000000000888 ) ;
#186 = DIRECTION ( 'NONE',  ( 0.000000000000000000, 0.000000000000000000, -1.000000000000000000 ) ) ;
#187 = PERSON_AND_ORGANIZATION ( #255, #141 ) ;
#188 = DIRECTION ( 'NONE',  ( 1.000000000000000000, 0.000000000000000000, 0.000000000000000000 ) ) ;
#189 = CARTESIAN_POINT ( 'NONE',  ( 0.000000000000000000, 0.000000000000000000, 807.0000000000000000 ) ) ;
#190 = EDGE_CURVE ( 'NONE', #55, #6, #285, .T. ) ;
#191 = DATE_AND_TIME ( #266, #21 ) ;
#192 = PERSON_AND_ORGANIZATION ( #255, #141 ) ;
#193 = APPROVAL ( #235, 'NEURÈENÝ' ) ;
#194 = SECURITY_CLASSIFICATION ( '', '', #53 ) ;
#195 = DATE_AND_TIME ( #54, #51 ) ;
#196 = APPROVAL_PERSON_ORGANIZATION ( #144, #193, #114 ) ;
#197 = DIRECTION ( 'NONE',  ( 1.000000000000000000, 0.000000000000000000, 0.000000000000000000 ) ) ;
#198 = ORIENTED_EDGE ( 'NONE', *, *, #37, .F. ) ;
#199 = CARTESIAN_POINT ( 'NONE',  ( 6.000000000000000888, 7.347880794884120722E-16, 807.0000000000000000 ) ) ;
#200 = CARTESIAN_POINT ( 'NONE',  ( -6.000000000000000888, 0.000000000000000000, 807.0000000000000000 ) ) ;
#201 = AXIS2_PLACEMENT_3D ( 'NONE', #88, #281, #188 ) ;
#202 = DIRECTION ( 'NONE',  ( -0.000000000000000000, -0.000000000000000000, -1.000000000000000000 ) ) ;
#203 = CARTESIAN_POINT ( 'NONE',  ( -9.000000000000000000, 0.000000000000000000, 0.000000000000000000 ) ) ;
#204 = DIRECTION ( 'NONE',  ( -0.000000000000000000, -0.000000000000000000, -1.000000000000000000 ) ) ;
#205 = CALENDAR_DATE ( 2022, 7, 7 ) ;
#206 = FACE_OUTER_BOUND ( 'NONE', #5, .T. ) ;
#207 = PRODUCT_DEFINITION_FORMATION_WITH_SPECIFIED_SOURCE ( 'LIBOVOLNÝ', '', #259, .NOT_KNOWN. ) ;
#208 = COORDINATED_UNIVERSAL_TIME_OFFSET ( 1, 0, .AHEAD. ) ;
#209 = PRODUCT_DEFINITION_SHAPE ( 'NONE', 'NONE',  #233 ) ;
#210 = FACE_OUTER_BOUND ( 'NONE', #112, .T. ) ;
#211 = CC_DESIGN_PERSON_AND_ORGANIZATION_ASSIGNMENT ( #187, #282, ( #233 ) ) ;
#212 = EDGE_CURVE ( 'NONE', #58, #271, #61, .T. ) ;
#213 = CC_DESIGN_APPROVAL ( #220, ( #207 ) ) ;
#214 = ORIENTED_EDGE ( 'NONE', *, *, #277, .T. ) ;
#215 = ADVANCED_FACE ( 'NONE', ( #206 ), #43, .F. ) ;
#216 = ORIENTED_EDGE ( 'NONE', *, *, #73, .T. ) ;
#217 = CYLINDRICAL_SURFACE ( 'NONE', #146, 9.000000000000000000 ) ;
#218 = AXIS2_PLACEMENT_3D ( 'NONE', #159, #38, #135 ) ;
#219 = ORIENTED_EDGE ( 'NONE', *, *, #127, .T. ) ;
#220 = APPROVAL ( #307, 'NEURÈENÝ' ) ;
#221 = CYLINDRICAL_SURFACE ( 'NONE', #50, 9.000000000000000000 ) ;
#222 = ORIENTED_EDGE ( 'NONE', *, *, #4, .T. ) ;
#223 = DIRECTION ( 'NONE',  ( 1.000000000000000000, 0.000000000000000000, 0.000000000000000000 ) ) ;
#224 = CARTESIAN_POINT ( 'NONE',  ( 0.000000000000000000, 0.000000000000000000, 0.000000000000000000 ) ) ;
#225 =( LENGTH_UNIT ( ) NAMED_UNIT ( * ) SI_UNIT ( .MILLI., .METRE. ) );
#226 = CARTESIAN_POINT ( 'NONE',  ( 9.000000000000000000, 1.102182119232617714E-15, 7.000000000000000000 ) ) ;
#227 = AXIS2_PLACEMENT_3D ( 'NONE', #115, #166, #163 ) ;
#228 = DATE_AND_TIME ( #140, #48 ) ;
#229 = AXIS2_PLACEMENT_3D ( 'NONE', #9, #85, #180 ) ;
#230 = CC_DESIGN_APPROVAL ( #165, ( #194 ) ) ;
#231 = DIRECTION ( 'NONE',  ( 1.000000000000000000, 0.000000000000000000, -0.000000000000000000 ) ) ;
#232 = PERSON_AND_ORGANIZATION ( #255, #141 ) ;
#233 = PRODUCT_DEFINITION ( 'NEZNÁMÝ', '', #207, #160 ) ;
#234 = MECHANICAL_CONTEXT ( 'NONE', #72, 'mechanical' ) ;
#235 = APPROVAL_STATUS ( 'not_yet_approved' ) ;
#236 = CLOSED_SHELL ( 'NONE', ( #243, #263, #52, #28, #109, #215, #298, #96, #89 ) ) ;
#237 = CC_DESIGN_DATE_AND_TIME_ASSIGNMENT ( #228, #20, ( #233 ) ) ;
#238 = APPROVAL_STATUS ( 'not_yet_approved' ) ;
#239 = PERSON_AND_ORGANIZATION_ROLE ( 'creator' ) ;
#240 = CIRCLE ( 'NONE', #171, 9.000000000000000000 ) ;
#241 = VECTOR ( 'NONE', #202, 1000.000000000000000 ) ;
#242 = EDGE_LOOP ( 'NONE', ( #267, #179, #102, #270 ) ) ;
#243 = ADVANCED_FACE ( 'NONE', ( #256 ), #105, .F. ) ;
#244 = DIRECTION ( 'NONE',  ( 0.000000000000000000, 0.000000000000000000, 1.000000000000000000 ) ) ;
#245 = ORIENTED_EDGE ( 'NONE', *, *, #73, .F. ) ;
#246 = DIRECTION ( 'NONE',  ( 0.000000000000000000, 0.000000000000000000, 1.000000000000000000 ) ) ;
#247 = ORIENTED_EDGE ( 'NONE', *, *, #103, .F. ) ;
#248 = APPROVAL_PERSON_ORGANIZATION ( #232, #220, #95 ) ;
#249 = EDGE_LOOP ( 'NONE', ( #152, #216 ) ) ;
#250 = CC_DESIGN_PERSON_AND_ORGANIZATION_ASSIGNMENT ( #287, #74, ( #259 ) ) ;
#251 = CIRCLE ( 'NONE', #279, 6.000000000000000888 ) ;
#252 = ORIENTED_EDGE ( 'NONE', *, *, #305, .F. ) ;
#253 = VERTEX_POINT ( 'NONE', #226 ) ;
#254 = DIRECTION ( 'NONE',  ( 1.000000000000000000, 0.000000000000000000, 0.000000000000000000 ) ) ;
#255 = PERSON ( 'NEURÈENÝ', 'NEURÈENÝ', 'NEURÈENÝ', ('NEURÈENÝ'), ('NEURÈENÝ'), ('NEURÈENÝ') ) ;
#256 = FACE_OUTER_BOUND ( 'NONE', #129, .T. ) ;
#257 = DIRECTION ( 'NONE',  ( 1.224646799147353207E-16, 1.000000000000000000, -0.000000000000000000 ) ) ;
#258 = DIRECTION ( 'NONE',  ( 0.000000000000000000, 0.000000000000000000, 1.000000000000000000 ) ) ;
#259 = PRODUCT ( 'a7b8', 'a7b8', '', ( #234 ) ) ;
#260 = DIRECTION ( 'NONE',  ( 0.000000000000000000, 0.000000000000000000, 1.000000000000000000 ) ) ;
#261 = CARTESIAN_POINT ( 'NONE',  ( 0.000000000000000000, 0.000000000000000000, 807.0000000000000000 ) ) ;
#262 =( NAMED_UNIT ( * ) SI_UNIT ( $, .STERADIAN. ) SOLID_ANGLE_UNIT ( ) );
#263 = ADVANCED_FACE ( 'NONE', ( #118 ), #24, .T. ) ;
#264 = AXIS2_PLACEMENT_3D ( 'NONE', #224, #260, #231 ) ;
#265 = APPROVAL_DATE_TIME ( #147, #220 ) ;
#266 = CALENDAR_DATE ( 2022, 7, 7 ) ;
#267 = ORIENTED_EDGE ( 'NONE', *, *, #4, .F. ) ;
#268 = ORIENTED_EDGE ( 'NONE', *, *, #25, .F. ) ;
#269 = ORIENTED_EDGE ( 'NONE', *, *, #65, .T. ) ;
#270 = ORIENTED_EDGE ( 'NONE', *, *, #37, .T. ) ;
#271 = VERTEX_POINT ( 'NONE', #168 ) ;
#272 = CARTESIAN_POINT ( 'NONE',  ( 6.200000000000001066, 0.000000000000000000, 6.999999999999992006 ) ) ;
#273 = CARTESIAN_POINT ( 'NONE',  ( -9.000000000000000000, 0.000000000000000000, 7.000000000000000000 ) ) ;
#274 = VECTOR ( 'NONE', #302, 1000.000000000000000 ) ;
#275 = LINE ( 'NONE', #297, #101 ) ;
#276 = CARTESIAN_POINT ( 'NONE',  ( 6.200000000000001066, 0.000000000000000000, 7.199999999999984190 ) ) ;
#277 = EDGE_CURVE ( 'NONE', #30, #271, #178, .T. ) ;
#278 = DIRECTION ( 'NONE',  ( 0.000000000000000000, 0.000000000000000000, 1.000000000000000000 ) ) ;
#279 = AXIS2_PLACEMENT_3D ( 'NONE', #111, #246, #36 ) ;
#280 = APPROVAL_DATE_TIME ( #90, #193 ) ;
#281 = DIRECTION ( 'NONE',  ( 0.000000000000000000, 0.000000000000000000, 1.000000000000000000 ) ) ;
#282 = PERSON_AND_ORGANIZATION_ROLE ( 'creator' ) ;
#283 = LINE ( 'NONE', #69, #274 ) ;
#284 = COORDINATED_UNIVERSAL_TIME_OFFSET ( 1, 0, .AHEAD. ) ;
#285 = CIRCLE ( 'NONE', #3, 9.000000000000000000 ) ;
#286 = DIRECTION ( 'NONE',  ( -0.000000000000000000, -0.000000000000000000, -1.000000000000000000 ) ) ;
#287 = PERSON_AND_ORGANIZATION ( #255, #141 ) ;
#288 = COORDINATED_UNIVERSAL_TIME_OFFSET ( 1, 0, .AHEAD. ) ;
#289 = CC_DESIGN_SECURITY_CLASSIFICATION ( #194, ( #207 ) ) ;
#290 = EDGE_CURVE ( 'NONE', #29, #33, #121, .T. ) ;
#291 = EDGE_LOOP ( 'NONE', ( #176, #269, #35, #252 ) ) ;
#292 = SHAPE_DEFINITION_REPRESENTATION ( #209, #104 ) ;
#293 = DIRECTION ( 'NONE',  ( -0.000000000000000000, -0.000000000000000000, -1.000000000000000000 ) ) ;
#294 = FACE_OUTER_BOUND ( 'NONE', #291, .T. ) ;
#295 = CARTESIAN_POINT ( 'NONE',  ( -6.000000000000000888, 0.000000000000000000, 7.199999999999984190 ) ) ;
#296 = CARTESIAN_POINT ( 'NONE',  ( 0.000000000000000000, 0.000000000000000000, 7.000000000000000000 ) ) ;
#297 = CARTESIAN_POINT ( 'NONE',  ( 9.000000000000000000, 1.102182119232617714E-15, 7.000000000000000000 ) ) ;
#298 = ADVANCED_FACE ( 'NONE', ( #138 ), #70, .T. ) ;
#299 = DIRECTION ( 'NONE',  ( 1.000000000000000000, 0.000000000000000000, 0.000000000000000000 ) ) ;
#300 = MANIFOLD_SOLID_BREP ( 'Zaoblit1', #236 ) ;
#301 = AXIS2_PLACEMENT_3D ( 'NONE', #189, #67, #2 ) ;
#302 = DIRECTION ( 'NONE',  ( -0.000000000000000000, -0.000000000000000000, -1.000000000000000000 ) ) ;
#303 = AXIS2_PLACEMENT_3D ( 'NONE', #92, #14, #87 ) ;
#304 = DIRECTION ( 'NONE',  ( 1.000000000000000000, 0.000000000000000000, 0.000000000000000000 ) ) ;
#305 = EDGE_CURVE ( 'NONE', #12, #6, #47, .T. ) ;
#306 = CARTESIAN_POINT ( 'NONE',  ( 0.000000000000000000, 0.000000000000000000, 7.199999999999984190 ) ) ;
#307 = APPROVAL_STATUS ( 'not_yet_approved' ) ;
ENDSEC;
END-ISO-10303-21;
