ISO-10303-21;
HEADER;
FILE_DESCRIPTION (( 'STEP AP203' ),
    '1' );
FILE_NAME ('bc4e.STEP',
    '2022-10-03T09:10:51',
    ( '' ),
    ( '' ),
    'SwSTEP 2.0',
    'SolidWorks 2019',
    '' );
FILE_SCHEMA (( 'CONFIG_CONTROL_DESIGN' ));
ENDSEC;

DATA;
#1 = SECURITY_CLASSIFICATION ( '', '', #261 ) ;
#2 = EDGE_CURVE ( 'NONE', #147, #83, #86, .T. ) ;
#3 = FACE_OUTER_BOUND ( 'NONE', #201, .T. ) ;
#4 = APPROVAL_DATE_TIME ( #34, #162 ) ;
#5 = ORIENTED_EDGE ( 'NONE', *, *, #238, .F. ) ;
#6 = COORDINATED_UNIVERSAL_TIME_OFFSET ( 1, 0, .AHEAD. ) ;
#7 = DATE_AND_TIME ( #195, #46 ) ;
#8 = APPROVAL_PERSON_ORGANIZATION ( #223, #162, #218 ) ;
#9 = ADVANCED_FACE ( 'NONE', ( #179 ), #225, .T. ) ;
#10 = CIRCLE ( 'NONE', #24, 8.000000000000000000 ) ;
#11 = DATE_TIME_ROLE ( 'classification_date' ) ;
#12 = ORIENTED_EDGE ( 'NONE', *, *, #33, .F. ) ;
#13 = DIRECTION ( 'NONE',  ( -1.000000000000000000, 0.000000000000000000, 0.000000000000000000 ) ) ;
#14 = CC_DESIGN_APPROVAL ( #231, ( #1 ) ) ;
#15 = VERTEX_POINT ( 'NONE', #278 ) ;
#16 = CYLINDRICAL_SURFACE ( 'NONE', #203, 8.000000000000000000 ) ;
#17 = APPROVAL ( #177, 'NEURÈENÝ' ) ;
#18 = CYLINDRICAL_SURFACE ( 'NONE', #244, 5.000000000000000888 ) ;
#19 = LOCAL_TIME ( 11, 10, 51.00000000000000000, #6 ) ;
#20 = ORIENTED_EDGE ( 'NONE', *, *, #182, .T. ) ;
#21 = DIRECTION ( 'NONE',  ( 1.000000000000000000, 0.000000000000000000, 0.000000000000000000 ) ) ;
#22 = FACE_OUTER_BOUND ( 'NONE', #247, .T. ) ;
#23 = ADVANCED_FACE ( 'NONE', ( #154 ), #16, .T. ) ;
#24 = AXIS2_PLACEMENT_3D ( 'NONE', #232, #274, #42 ) ;
#25 = CARTESIAN_POINT ( 'NONE',  ( 0.000000000000000000, 0.000000000000000000, 0.000000000000000000 ) ) ;
#26 = CARTESIAN_POINT ( 'NONE',  ( 8.000000000000000000, 9.797174393178825657E-16, 5.000000000000000000 ) ) ;
#27 = CARTESIAN_POINT ( 'NONE',  ( 8.000000000000000000, 9.797174393178825657E-16, 5.000000000000000000 ) ) ;
#28 = APPROVAL_ROLE ( '' ) ;
#29 = AXIS2_PLACEMENT_3D ( 'NONE', #211, #67, #240 ) ;
#30 = PERSON_AND_ORGANIZATION ( #269, #305 ) ;
#31 = EDGE_LOOP ( 'NONE', ( #12, #73, #276, #63 ) ) ;
#32 = PERSON_AND_ORGANIZATION ( #269, #305 ) ;
#33 = EDGE_CURVE ( 'NONE', #147, #184, #85, .T. ) ;
#34 = DATE_AND_TIME ( #106, #181 ) ;
#35 = CIRCLE ( 'NONE', #92, 0.1999999999999996503 ) ;
#36 = ORIENTED_EDGE ( 'NONE', *, *, #62, .F. ) ;
#37 = VECTOR ( 'NONE', #248, 1000.000000000000000 ) ;
#38 = AXIS2_PLACEMENT_3D ( 'NONE', #255, #44, #60 ) ;
#39 = CARTESIAN_POINT ( 'NONE',  ( 0.000000000000000000, 0.000000000000000000, 5.000000000000000000 ) ) ;
#40 = FACE_OUTER_BOUND ( 'NONE', #149, .T. ) ;
#41 = EDGE_CURVE ( 'NONE', #224, #184, #275, .T. ) ;
#42 = DIRECTION ( 'NONE',  ( 1.000000000000000000, 0.000000000000000000, 0.000000000000000000 ) ) ;
#43 = DIRECTION ( 'NONE',  ( 1.000000000000000000, 0.000000000000000000, 0.000000000000000000 ) ) ;
#44 = DIRECTION ( 'NONE',  ( 0.000000000000000000, 0.000000000000000000, 1.000000000000000000 ) ) ;
#45 = LINE ( 'NONE', #26, #304 ) ;
#46 = LOCAL_TIME ( 11, 10, 51.00000000000000000, #76 ) ;
#47 = DIRECTION ( 'NONE',  ( 1.000000000000000000, 0.000000000000000000, 0.000000000000000000 ) ) ;
#48 = PRODUCT_RELATED_PRODUCT_CATEGORY ( 'detail', '', ( #49 ) ) ;
#49 = PRODUCT ( 'bc4e', 'bc4e', '', ( #245 ) ) ;
#50 = LINE ( 'NONE', #257, #107 ) ;
#51 =( NAMED_UNIT ( * ) PLANE_ANGLE_UNIT ( ) SI_UNIT ( $, .RADIAN. ) );
#52 = AXIS2_PLACEMENT_3D ( 'NONE', #102, #265, #293 ) ;
#53 = ORIENTED_EDGE ( 'NONE', *, *, #62, .T. ) ;
#54 = PERSON_AND_ORGANIZATION ( #269, #305 ) ;
#55 = DATE_TIME_ROLE ( 'creation_date' ) ;
#56 = ORIENTED_EDGE ( 'NONE', *, *, #68, .T. ) ;
#57 = CALENDAR_DATE ( 2022, 3, 10 ) ;
#58 = ORIENTED_EDGE ( 'NONE', *, *, #264, .F. ) ;
#59 = ORIENTED_EDGE ( 'NONE', *, *, #291, .T. ) ;
#60 = DIRECTION ( 'NONE',  ( 1.000000000000000000, 0.000000000000000000, -0.000000000000000000 ) ) ;
#61 =( GEOMETRIC_REPRESENTATION_CONTEXT ( 3 ) GLOBAL_UNCERTAINTY_ASSIGNED_CONTEXT ( ( #155 ) ) GLOBAL_UNIT_ASSIGNED_CONTEXT ( ( #77, #51, #242 ) ) REPRESENTATION_CONTEXT ( 'NONE', 'WORKASPACE' ) );
#62 = EDGE_CURVE ( 'NONE', #170, #15, #141, .T. ) ;
#63 = ORIENTED_EDGE ( 'NONE', *, *, #41, .T. ) ;
#64 = ORIENTED_EDGE ( 'NONE', *, *, #2, .F. ) ;
#65 = DIRECTION ( 'NONE',  ( 1.000000000000000000, 0.000000000000000000, 0.000000000000000000 ) ) ;
#66 = PLANE ( 'NONE',  #213 ) ;
#67 = DIRECTION ( 'NONE',  ( 0.000000000000000000, 0.000000000000000000, 1.000000000000000000 ) ) ;
#68 = EDGE_CURVE ( 'NONE', #199, #87, #10, .T. ) ;
#69 = LINE ( 'NONE', #239, #97 ) ;
#70 = LOCAL_TIME ( 11, 10, 51.00000000000000000, #263 ) ;
#71 = DIRECTION ( 'NONE',  ( -0.000000000000000000, -0.000000000000000000, -1.000000000000000000 ) ) ;
#72 = CARTESIAN_POINT ( 'NONE',  ( 0.000000000000000000, 0.000000000000000000, 5.000000000000000000 ) ) ;
#73 = ORIENTED_EDGE ( 'NONE', *, *, #114, .F. ) ;
#74 = ADVANCED_FACE ( 'NONE', ( #131 ), #18, .T. ) ;
#75 = TOROIDAL_SURFACE ( 'NONE', #196, 5.200000000000001066, 0.2000000000000000111 ) ;
#76 = COORDINATED_UNIVERSAL_TIME_OFFSET ( 1, 0, .AHEAD. ) ;
#77 =( LENGTH_UNIT ( ) NAMED_UNIT ( * ) SI_UNIT ( .MILLI., .METRE. ) );
#78 = APPROVAL_STATUS ( 'not_yet_approved' ) ;
#79 = ADVANCED_FACE ( 'NONE', ( #135 ), #234, .T. ) ;
#80 = CIRCLE ( 'NONE', #198, 8.000000000000000000 ) ;
#81 = APPLICATION_PROTOCOL_DEFINITION ( 'international standard', 'config_control_design', 1994, #212 ) ;
#82 = ORIENTED_EDGE ( 'NONE', *, *, #222, .F. ) ;
#83 = VERTEX_POINT ( 'NONE', #156 ) ;
#84 = CARTESIAN_POINT ( 'NONE',  ( 0.000000000000000000, 0.000000000000000000, 461.0000000000000000 ) ) ;
#85 = LINE ( 'NONE', #270, #37 ) ;
#86 = CIRCLE ( 'NONE', #192, 5.000000000000000888 ) ;
#87 = VERTEX_POINT ( 'NONE', #250 ) ;
#88 = ORIENTED_EDGE ( 'NONE', *, *, #114, .T. ) ;
#89 = ADVANCED_FACE ( 'NONE', ( #40 ), #230, .F. ) ;
#90 = DIRECTION ( 'NONE',  ( -1.000000000000000000, 0.000000000000000000, 0.000000000000000000 ) ) ;
#91 = CIRCLE ( 'NONE', #129, 5.200000000000001066 ) ;
#92 = AXIS2_PLACEMENT_3D ( 'NONE', #187, #189, #258 ) ;
#93 = CARTESIAN_POINT ( 'NONE',  ( 0.000000000000000000, 0.000000000000000000, 5.000000000000000000 ) ) ;
#94 = EDGE_CURVE ( 'NONE', #200, #294, #161, .T. ) ;
#95 = DIRECTION ( 'NONE',  ( -0.000000000000000000, -0.000000000000000000, -1.000000000000000000 ) ) ;
#96 = DIRECTION ( 'NONE',  ( 1.000000000000000000, 0.000000000000000000, 0.000000000000000000 ) ) ;
#97 = VECTOR ( 'NONE', #71, 1000.000000000000000 ) ;
#98 = PRODUCT_DEFINITION_FORMATION_WITH_SPECIFIED_SOURCE ( 'LIBOVOLNÝ', '', #49, .NOT_KNOWN. ) ;
#99 = CARTESIAN_POINT ( 'NONE',  ( -5.200000000000001066, 6.368163355566237368E-16, 5.199999999999982414 ) ) ;
#100 = SHAPE_DEFINITION_REPRESENTATION ( #173, #103 ) ;
#101 = PERSON_AND_ORGANIZATION_ROLE ( 'classification_officer' ) ;
#102 = CARTESIAN_POINT ( 'NONE',  ( 0.000000000000000000, 0.000000000000000000, 0.000000000000000000 ) ) ;
#103 = ADVANCED_BREP_SHAPE_REPRESENTATION ( 'bc4e', ( #249, #52 ), #61 ) ;
#104 = CC_DESIGN_PERSON_AND_ORGANIZATION_ASSIGNMENT ( #241, #215, ( #98 ) ) ;
#105 = EDGE_LOOP ( 'NONE', ( #178, #82, #266, #268 ) ) ;
#106 = CALENDAR_DATE ( 2022, 3, 10 ) ;
#107 = VECTOR ( 'NONE', #95, 1000.000000000000000 ) ;
#108 = DIRECTION ( 'NONE',  ( -0.000000000000000000, -0.000000000000000000, -1.000000000000000000 ) ) ;
#109 = ORIENTED_EDGE ( 'NONE', *, *, #134, .F. ) ;
#110 = EDGE_LOOP ( 'NONE', ( #53, #20 ) ) ;
#111 = DIRECTION ( 'NONE',  ( -0.000000000000000000, -0.000000000000000000, -1.000000000000000000 ) ) ;
#112 = APPROVAL_PERSON_ORGANIZATION ( #288, #231, #124 ) ;
#113 = AXIS2_PLACEMENT_3D ( 'NONE', #115, #132, #285 ) ;
#114 = EDGE_CURVE ( 'NONE', #83, #147, #226, .T. ) ;
#115 = CARTESIAN_POINT ( 'NONE',  ( 0.000000000000000000, 0.000000000000000000, 0.000000000000000000 ) ) ;
#116 = DIRECTION ( 'NONE',  ( 1.000000000000000000, 0.000000000000000000, 0.000000000000000000 ) ) ;
#117 = CARTESIAN_POINT ( 'NONE',  ( 0.000000000000000000, 0.000000000000000000, 5.000000000000000000 ) ) ;
#118 = DIRECTION ( 'NONE',  ( 1.224646799147353207E-16, 1.000000000000000000, -0.000000000000000000 ) ) ;
#119 = ADVANCED_FACE ( 'NONE', ( #120, #236 ), #66, .T. ) ;
#120 = FACE_BOUND ( 'NONE', #110, .T. ) ;
#121 = DIRECTION ( 'NONE',  ( -0.000000000000000000, -0.000000000000000000, -1.000000000000000000 ) ) ;
#122 = DATE_AND_TIME ( #127, #254 ) ;
#123 = APPROVAL_DATE_TIME ( #122, #17 ) ;
#124 = APPROVAL_ROLE ( '' ) ;
#125 = ADVANCED_FACE ( 'NONE', ( #22 ), #281, .T. ) ;
#126 = ORIENTED_EDGE ( 'NONE', *, *, #2, .T. ) ;
#127 = CALENDAR_DATE ( 2022, 3, 10 ) ;
#128 = ORIENTED_EDGE ( 'NONE', *, *, #238, .T. ) ;
#129 = AXIS2_PLACEMENT_3D ( 'NONE', #117, #210, #235 ) ;
#130 = CC_DESIGN_SECURITY_CLASSIFICATION ( #1, ( #98 ) ) ;
#131 = FACE_OUTER_BOUND ( 'NONE', #229, .T. ) ;
#132 = DIRECTION ( 'NONE',  ( 0.000000000000000000, 0.000000000000000000, 1.000000000000000000 ) ) ;
#133 = DIRECTION ( 'NONE',  ( 0.000000000000000000, 0.000000000000000000, 1.000000000000000000 ) ) ;
#134 = EDGE_CURVE ( 'NONE', #294, #87, #69, .T. ) ;
#135 = FACE_OUTER_BOUND ( 'NONE', #262, .T. ) ;
#136 = DIRECTION ( 'NONE',  ( 0.000000000000000000, 0.000000000000000000, 1.000000000000000000 ) ) ;
#137 = CARTESIAN_POINT ( 'NONE',  ( 0.000000000000000000, 0.000000000000000000, 461.0000000000000000 ) ) ;
#138 = CARTESIAN_POINT ( 'NONE',  ( 0.000000000000000000, 0.000000000000000000, 5.199999999999982414 ) ) ;
#139 = PRODUCT_DEFINITION ( 'NEZNÁMÝ', '', #98, #185 ) ;
#140 = CC_DESIGN_APPROVAL ( #17, ( #139 ) ) ;
#141 = CIRCLE ( 'NONE', #302, 5.200000000000001066 ) ;
#142 = FACE_OUTER_BOUND ( 'NONE', #157, .T. ) ;
#143 = DIRECTION ( 'NONE',  ( 1.000000000000000000, 0.000000000000000000, -0.000000000000000000 ) ) ;
#144 = APPLICATION_PROTOCOL_DEFINITION ( 'international standard', 'config_control_design', 1994, #190 ) ;
#145 = CIRCLE ( 'NONE', #227, 0.1999999999999996503 ) ;
#146 = COORDINATED_UNIVERSAL_TIME_OFFSET ( 1, 0, .AHEAD. ) ;
#147 = VERTEX_POINT ( 'NONE', #166 ) ;
#148 = APPROVAL_STATUS ( 'not_yet_approved' ) ;
#149 = EDGE_LOOP ( 'NONE', ( #246, #205 ) ) ;
#150 = PERSON_AND_ORGANIZATION ( #269, #305 ) ;
#151 = ORIENTED_EDGE ( 'NONE', *, *, #222, .T. ) ;
#152 = ORIENTED_EDGE ( 'NONE', *, *, #94, .T. ) ;
#153 = EDGE_LOOP ( 'NONE', ( #151, #152 ) ) ;
#154 = FACE_OUTER_BOUND ( 'NONE', #105, .T. ) ;
#155 = UNCERTAINTY_MEASURE_WITH_UNIT (LENGTH_MEASURE( 1.000000000000000082E-05 ), #77, 'distance_accuracy_value', 'NONE');
#156 = CARTESIAN_POINT ( 'NONE',  ( -5.000000000000000888, 0.000000000000000000, 461.0000000000000000 ) ) ;
#157 = EDGE_LOOP ( 'NONE', ( #159, #216, #36, #176 ) ) ;
#158 = EDGE_CURVE ( 'NONE', #87, #199, #80, .T. ) ;
#159 = ORIENTED_EDGE ( 'NONE', *, *, #41, .F. ) ;
#160 = ORIENTED_EDGE ( 'NONE', *, *, #94, .F. ) ;
#161 = CIRCLE ( 'NONE', #29, 8.000000000000000000 ) ;
#162 = APPROVAL ( #78, 'NEURÈENÝ' ) ;
#163 = CARTESIAN_POINT ( 'NONE',  ( 0.000000000000000000, 0.000000000000000000, 5.000000000000000000 ) ) ;
#164 = DIRECTION ( 'NONE',  ( 0.000000000000000000, 0.000000000000000000, 1.000000000000000000 ) ) ;
#165 = AXIS2_PLACEMENT_3D ( 'NONE', #297, #108, #252 ) ;
#166 = CARTESIAN_POINT ( 'NONE',  ( 5.000000000000000888, 6.123233995736766282E-16, 461.0000000000000000 ) ) ;
#167 = EDGE_CURVE ( 'NONE', #83, #224, #50, .T. ) ;
#168 = DIRECTION ( 'NONE',  ( 1.000000000000000000, 0.000000000000000000, 0.000000000000000000 ) ) ;
#169 = PERSON_AND_ORGANIZATION_ROLE ( 'design_owner' ) ;
#170 = VERTEX_POINT ( 'NONE', #193 ) ;
#171 = CIRCLE ( 'NONE', #284, 8.000000000000000000 ) ;
#172 = COORDINATED_UNIVERSAL_TIME_OFFSET ( 1, 0, .AHEAD. ) ;
#173 = PRODUCT_DEFINITION_SHAPE ( 'NONE', 'NONE',  #139 ) ;
#174 = CC_DESIGN_PERSON_AND_ORGANIZATION_ASSIGNMENT ( #32, #169, ( #49 ) ) ;
#175 = DATE_AND_TIME ( #221, #19 ) ;
#176 = ORIENTED_EDGE ( 'NONE', *, *, #291, .F. ) ;
#177 = APPROVAL_STATUS ( 'not_yet_approved' ) ;
#178 = ORIENTED_EDGE ( 'NONE', *, *, #207, .F. ) ;
#179 = FACE_OUTER_BOUND ( 'NONE', #31, .T. ) ;
#180 = DIRECTION ( 'NONE',  ( -0.000000000000000000, -0.000000000000000000, -1.000000000000000000 ) ) ;
#181 = LOCAL_TIME ( 11, 10, 51.00000000000000000, #172 ) ;
#182 = EDGE_CURVE ( 'NONE', #15, #170, #91, .T. ) ;
#183 = ORIENTED_EDGE ( 'NONE', *, *, #207, .T. ) ;
#184 = VERTEX_POINT ( 'NONE', #306 ) ;
#185 = DESIGN_CONTEXT ( 'detailed design', #212, 'design' ) ;
#186 = ORIENTED_EDGE ( 'NONE', *, *, #182, .F. ) ;
#187 = CARTESIAN_POINT ( 'NONE',  ( 5.200000000000001066, 0.000000000000000000, 5.199999999999982414 ) ) ;
#188 = DIRECTION ( 'NONE',  ( 0.000000000000000000, 0.000000000000000000, 1.000000000000000000 ) ) ;
#189 = DIRECTION ( 'NONE',  ( 0.000000000000000000, -1.000000000000000000, 0.000000000000000000 ) ) ;
#190 = APPLICATION_CONTEXT ( 'configuration controlled 3d designs of mechanical parts and assemblies' ) ;
#191 = DIRECTION ( 'NONE',  ( 0.000000000000000000, 0.000000000000000000, 1.000000000000000000 ) ) ;
#192 = AXIS2_PLACEMENT_3D ( 'NONE', #301, #272, #251 ) ;
#193 = CARTESIAN_POINT ( 'NONE',  ( 5.200000000000001066, 0.000000000000000000, 4.999999999999991118 ) ) ;
#194 = PERSON_AND_ORGANIZATION_ROLE ( 'creator' ) ;
#195 = CALENDAR_DATE ( 2022, 3, 10 ) ;
#196 = AXIS2_PLACEMENT_3D ( 'NONE', #283, #164, #96 ) ;
#197 = APPROVAL_DATE_TIME ( #175, #231 ) ;
#198 = AXIS2_PLACEMENT_3D ( 'NONE', #25, #136, #259 ) ;
#199 = VERTEX_POINT ( 'NONE', #208 ) ;
#200 = VERTEX_POINT ( 'NONE', #27 ) ;
#201 = EDGE_LOOP ( 'NONE', ( #58, #5, #59, #186 ) ) ;
#202 = CIRCLE ( 'NONE', #273, 5.000000000000000888 ) ;
#203 = AXIS2_PLACEMENT_3D ( 'NONE', #298, #299, #13 ) ;
#204 = DIRECTION ( 'NONE',  ( -1.000000000000000000, 0.000000000000000000, 0.000000000000000000 ) ) ;
#205 = ORIENTED_EDGE ( 'NONE', *, *, #68, .F. ) ;
#206 = DIRECTION ( 'NONE',  ( 0.000000000000000000, 0.000000000000000000, 1.000000000000000000 ) ) ;
#207 = EDGE_CURVE ( 'NONE', #200, #199, #45, .T. ) ;
#208 = CARTESIAN_POINT ( 'NONE',  ( 8.000000000000000000, 9.797174393178825657E-16, 0.000000000000000000 ) ) ;
#209 = CARTESIAN_POINT ( 'NONE',  ( -5.000000000000000888, 0.000000000000000000, 5.199999999999982414 ) ) ;
#210 = DIRECTION ( 'NONE',  ( -0.000000000000000000, -0.000000000000000000, -1.000000000000000000 ) ) ;
#211 = CARTESIAN_POINT ( 'NONE',  ( 0.000000000000000000, 0.000000000000000000, 5.000000000000000000 ) ) ;
#212 = APPLICATION_CONTEXT ( 'configuration controlled 3d designs of mechanical parts and assemblies' ) ;
#213 = AXIS2_PLACEMENT_3D ( 'NONE', #163, #188, #143 ) ;
#214 = PERSON_AND_ORGANIZATION ( #269, #305 ) ;
#215 = PERSON_AND_ORGANIZATION_ROLE ( 'design_supplier' ) ;
#216 = ORIENTED_EDGE ( 'NONE', *, *, #264, .T. ) ;
#217 = CC_DESIGN_DATE_AND_TIME_ASSIGNMENT ( #290, #55, ( #139 ) ) ;
#218 = APPROVAL_ROLE ( '' ) ;
#219 = APPROVAL_PERSON_ORGANIZATION ( #30, #17, #28 ) ;
#220 = CLOSED_SHELL ( 'NONE', ( #271, #74, #125, #23, #119, #89, #9, #79, #277 ) ) ;
#221 = CALENDAR_DATE ( 2022, 3, 10 ) ;
#222 = EDGE_CURVE ( 'NONE', #294, #200, #171, .T. ) ;
#223 = PERSON_AND_ORGANIZATION ( #269, #305 ) ;
#224 = VERTEX_POINT ( 'NONE', #209 ) ;
#225 = CYLINDRICAL_SURFACE ( 'NONE', #165, 5.000000000000000888 ) ;
#226 = CIRCLE ( 'NONE', #233, 5.000000000000000888 ) ;
#227 = AXIS2_PLACEMENT_3D ( 'NONE', #99, #118, #256 ) ;
#228 = TOROIDAL_SURFACE ( 'NONE', #279, 5.200000000000001066, 0.2000000000000000111 ) ;
#229 = EDGE_LOOP ( 'NONE', ( #64, #289, #128, #295 ) ) ;
#230 = PLANE ( 'NONE',  #113 ) ;
#231 = APPROVAL ( #148, 'NEURÈENÝ' ) ;
#232 = CARTESIAN_POINT ( 'NONE',  ( 0.000000000000000000, 0.000000000000000000, 0.000000000000000000 ) ) ;
#233 = AXIS2_PLACEMENT_3D ( 'NONE', #137, #191, #47 ) ;
#234 = PLANE ( 'NONE',  #38 ) ;
#235 = DIRECTION ( 'NONE',  ( 1.000000000000000000, 0.000000000000000000, 0.000000000000000000 ) ) ;
#236 = FACE_OUTER_BOUND ( 'NONE', #153, .T. ) ;
#237 = DIRECTION ( 'NONE',  ( 0.000000000000000000, 0.000000000000000000, 1.000000000000000000 ) ) ;
#238 = EDGE_CURVE ( 'NONE', #184, #224, #202, .T. ) ;
#239 = CARTESIAN_POINT ( 'NONE',  ( -8.000000000000000000, 0.000000000000000000, 5.000000000000000000 ) ) ;
#240 = DIRECTION ( 'NONE',  ( 1.000000000000000000, 0.000000000000000000, 0.000000000000000000 ) ) ;
#241 = PERSON_AND_ORGANIZATION ( #269, #305 ) ;
#242 =( NAMED_UNIT ( * ) SI_UNIT ( $, .STERADIAN. ) SOLID_ANGLE_UNIT ( ) );
#243 = CC_DESIGN_PERSON_AND_ORGANIZATION_ASSIGNMENT ( #150, #101, ( #1 ) ) ;
#244 = AXIS2_PLACEMENT_3D ( 'NONE', #84, #180, #204 ) ;
#245 = MECHANICAL_CONTEXT ( 'NONE', #190, 'mechanical' ) ;
#246 = ORIENTED_EDGE ( 'NONE', *, *, #158, .F. ) ;
#247 = EDGE_LOOP ( 'NONE', ( #160, #183, #56, #109 ) ) ;
#248 = DIRECTION ( 'NONE',  ( -0.000000000000000000, -0.000000000000000000, -1.000000000000000000 ) ) ;
#249 = MANIFOLD_SOLID_BREP ( 'Zaoblit1', #220 ) ;
#250 = CARTESIAN_POINT ( 'NONE',  ( -8.000000000000000000, 0.000000000000000000, 0.000000000000000000 ) ) ;
#251 = DIRECTION ( 'NONE',  ( 1.000000000000000000, 0.000000000000000000, 0.000000000000000000 ) ) ;
#252 = DIRECTION ( 'NONE',  ( -1.000000000000000000, 0.000000000000000000, 0.000000000000000000 ) ) ;
#253 = CC_DESIGN_PERSON_AND_ORGANIZATION_ASSIGNMENT ( #54, #194, ( #98 ) ) ;
#254 = LOCAL_TIME ( 11, 10, 51.00000000000000000, #146 ) ;
#255 = CARTESIAN_POINT ( 'NONE',  ( 0.000000000000000000, 0.000000000000000000, 461.0000000000000000 ) ) ;
#256 = DIRECTION ( 'NONE',  ( -1.000000000000000000, 1.224646799147353454E-16, 0.000000000000000000 ) ) ;
#257 = CARTESIAN_POINT ( 'NONE',  ( -5.000000000000000888, 0.000000000000000000, 461.0000000000000000 ) ) ;
#258 = DIRECTION ( 'NONE',  ( 0.000000000000000000, 0.000000000000000000, -1.000000000000000000 ) ) ;
#259 = DIRECTION ( 'NONE',  ( 1.000000000000000000, 0.000000000000000000, 0.000000000000000000 ) ) ;
#260 = DIRECTION ( 'NONE',  ( -0.000000000000000000, -0.000000000000000000, -1.000000000000000000 ) ) ;
#261 = SECURITY_CLASSIFICATION_LEVEL ( 'unclassified' ) ;
#262 = EDGE_LOOP ( 'NONE', ( #88, #126 ) ) ;
#263 = COORDINATED_UNIVERSAL_TIME_OFFSET ( 1, 0, .AHEAD. ) ;
#264 = EDGE_CURVE ( 'NONE', #224, #15, #145, .T. ) ;
#265 = DIRECTION ( 'NONE',  ( 0.000000000000000000, 0.000000000000000000, 1.000000000000000000 ) ) ;
#266 = ORIENTED_EDGE ( 'NONE', *, *, #134, .T. ) ;
#267 = AXIS2_PLACEMENT_3D ( 'NONE', #72, #260, #90 ) ;
#268 = ORIENTED_EDGE ( 'NONE', *, *, #158, .T. ) ;
#269 = PERSON ( 'NEURÈENÝ', 'NEURÈENÝ', 'NEURÈENÝ', ('NEURÈENÝ'), ('NEURÈENÝ'), ('NEURÈENÝ') ) ;
#270 = CARTESIAN_POINT ( 'NONE',  ( 5.000000000000000888, 6.123233995736766282E-16, 461.0000000000000000 ) ) ;
#271 = ADVANCED_FACE ( 'NONE', ( #142 ), #228, .F. ) ;
#272 = DIRECTION ( 'NONE',  ( 0.000000000000000000, 0.000000000000000000, 1.000000000000000000 ) ) ;
#273 = AXIS2_PLACEMENT_3D ( 'NONE', #138, #287, #116 ) ;
#274 = DIRECTION ( 'NONE',  ( 0.000000000000000000, 0.000000000000000000, 1.000000000000000000 ) ) ;
#275 = CIRCLE ( 'NONE', #286, 5.000000000000000888 ) ;
#276 = ORIENTED_EDGE ( 'NONE', *, *, #167, .T. ) ;
#277 = ADVANCED_FACE ( 'NONE', ( #3 ), #75, .F. ) ;
#278 = CARTESIAN_POINT ( 'NONE',  ( -5.200000000000001066, 6.368163355566237368E-16, 4.999999999999991118 ) ) ;
#279 = AXIS2_PLACEMENT_3D ( 'NONE', #307, #206, #168 ) ;
#280 = CARTESIAN_POINT ( 'NONE',  ( -8.000000000000000000, 0.000000000000000000, 5.000000000000000000 ) ) ;
#281 = CYLINDRICAL_SURFACE ( 'NONE', #267, 8.000000000000000000 ) ;
#282 = CC_DESIGN_DATE_AND_TIME_ASSIGNMENT ( #7, #11, ( #1 ) ) ;
#283 = CARTESIAN_POINT ( 'NONE',  ( 0.000000000000000000, 0.000000000000000000, 5.199999999999982414 ) ) ;
#284 = AXIS2_PLACEMENT_3D ( 'NONE', #93, #237, #21 ) ;
#285 = DIRECTION ( 'NONE',  ( 1.000000000000000000, 0.000000000000000000, -0.000000000000000000 ) ) ;
#286 = AXIS2_PLACEMENT_3D ( 'NONE', #303, #133, #65 ) ;
#287 = DIRECTION ( 'NONE',  ( 0.000000000000000000, 0.000000000000000000, 1.000000000000000000 ) ) ;
#288 = PERSON_AND_ORGANIZATION ( #269, #305 ) ;
#289 = ORIENTED_EDGE ( 'NONE', *, *, #33, .T. ) ;
#290 = DATE_AND_TIME ( #57, #70 ) ;
#291 = EDGE_CURVE ( 'NONE', #184, #170, #35, .T. ) ;
#292 = PERSON_AND_ORGANIZATION_ROLE ( 'creator' ) ;
#293 = DIRECTION ( 'NONE',  ( 1.000000000000000000, 0.000000000000000000, 0.000000000000000000 ) ) ;
#294 = VERTEX_POINT ( 'NONE', #280 ) ;
#295 = ORIENTED_EDGE ( 'NONE', *, *, #167, .F. ) ;
#296 = CC_DESIGN_APPROVAL ( #162, ( #98 ) ) ;
#297 = CARTESIAN_POINT ( 'NONE',  ( 0.000000000000000000, 0.000000000000000000, 461.0000000000000000 ) ) ;
#298 = CARTESIAN_POINT ( 'NONE',  ( 0.000000000000000000, 0.000000000000000000, 5.000000000000000000 ) ) ;
#299 = DIRECTION ( 'NONE',  ( -0.000000000000000000, -0.000000000000000000, -1.000000000000000000 ) ) ;
#300 = CC_DESIGN_PERSON_AND_ORGANIZATION_ASSIGNMENT ( #214, #292, ( #139 ) ) ;
#301 = CARTESIAN_POINT ( 'NONE',  ( 0.000000000000000000, 0.000000000000000000, 461.0000000000000000 ) ) ;
#302 = AXIS2_PLACEMENT_3D ( 'NONE', #39, #111, #43 ) ;
#303 = CARTESIAN_POINT ( 'NONE',  ( 0.000000000000000000, 0.000000000000000000, 5.199999999999982414 ) ) ;
#304 = VECTOR ( 'NONE', #121, 1000.000000000000000 ) ;
#305 = ORGANIZATION ( 'NEURÈENÝ', 'NEURÈENÝ', '' ) ;
#306 = CARTESIAN_POINT ( 'NONE',  ( 5.000000000000000888, 6.123233995736766282E-16, 5.199999999999982414 ) ) ;
#307 = CARTESIAN_POINT ( 'NONE',  ( 0.000000000000000000, 0.000000000000000000, 5.199999999999982414 ) ) ;
ENDSEC;
END-ISO-10303-21;
