ISO-10303-21;
HEADER;
FILE_DESCRIPTION (( 'STEP AP203' ),
    '1' );
FILE_NAME ('5b8c.STEP',
    '2022-07-07T10:34:36',
    ( '' ),
    ( '' ),
    'SwSTEP 2.0',
    'SolidWorks 2019',
    '' );
FILE_SCHEMA (( 'CONFIG_CONTROL_DESIGN' ));
ENDSEC;

DATA;
#1 = CARTESIAN_POINT ( 'NONE',  ( -1.100000000000000089, 0.000000000000000000, 127.0000000000000000 ) ) ;
#2 = CC_DESIGN_PERSON_AND_ORGANIZATION_ASSIGNMENT ( #225, #136, ( #216 ) ) ;
#3 = DIRECTION ( 'NONE',  ( -0.000000000000000000, -0.000000000000000000, -1.000000000000000000 ) ) ;
#4 = AXIS2_PLACEMENT_3D ( 'NONE', #162, #298, #301 ) ;
#5 = DIRECTION ( 'NONE',  ( 1.000000000000000000, 0.000000000000000000, 0.000000000000000000 ) ) ;
#6 = DIRECTION ( 'NONE',  ( 0.000000000000000000, 0.000000000000000000, 1.000000000000000000 ) ) ;
#7 = PLANE ( 'NONE',  #234 ) ;
#8 = CIRCLE ( 'NONE', #160, 1.100000000000000089 ) ;
#9 = EDGE_CURVE ( 'NONE', #175, #274, #199, .T. ) ;
#10 = COORDINATED_UNIVERSAL_TIME_OFFSET ( 1, 0, .AHEAD. ) ;
#11 = DATE_AND_TIME ( #236, #21 ) ;
#12 = DATE_AND_TIME ( #228, #288 ) ;
#13 = ORGANIZATION ( 'NEURÈENÝ', 'NEURÈENÝ', '' ) ;
#14 = PERSON_AND_ORGANIZATION ( #100, #13 ) ;
#15 = ORIENTED_EDGE ( 'NONE', *, *, #223, .T. ) ;
#16 = ADVANCED_FACE ( 'NONE', ( #184 ), #237, .T. ) ;
#17 = DATE_AND_TIME ( #232, #194 ) ;
#18 = LINE ( 'NONE', #205, #111 ) ;
#19 = APPROVAL_STATUS ( 'not_yet_approved' ) ;
#20 = DIRECTION ( 'NONE',  ( -0.000000000000000000, -0.000000000000000000, -1.000000000000000000 ) ) ;
#21 = LOCAL_TIME ( 12, 34, 36.00000000000000000, #141 ) ;
#22 = DATE_TIME_ROLE ( 'classification_date' ) ;
#23 = EDGE_LOOP ( 'NONE', ( #275, #105 ) ) ;
#24 = CC_DESIGN_DATE_AND_TIME_ASSIGNMENT ( #134, #22, ( #248 ) ) ;
#25 = CARTESIAN_POINT ( 'NONE',  ( 0.000000000000000000, 0.000000000000000000, 2.199999999999993516 ) ) ;
#26 = DIRECTION ( 'NONE',  ( 0.000000000000000000, 0.000000000000000000, 1.000000000000000000 ) ) ;
#27 = CIRCLE ( 'NONE', #56, 2.000000000000000000 ) ;
#28 = LINE ( 'NONE', #124, #118 ) ;
#29 = CYLINDRICAL_SURFACE ( 'NONE', #33, 2.000000000000000000 ) ;
#30 = AXIS2_PLACEMENT_3D ( 'NONE', #307, #112, #39 ) ;
#31 = ORIENTED_EDGE ( 'NONE', *, *, #185, .F. ) ;
#32 = EDGE_LOOP ( 'NONE', ( #249, #90 ) ) ;
#33 = AXIS2_PLACEMENT_3D ( 'NONE', #168, #3, #125 ) ;
#34 = ADVANCED_FACE ( 'NONE', ( #297 ), #295, .F. ) ;
#35 = ORIENTED_EDGE ( 'NONE', *, *, #246, .T. ) ;
#36 = VERTEX_POINT ( 'NONE', #201 ) ;
#37 = DIRECTION ( 'NONE',  ( 0.000000000000000000, 0.000000000000000000, 1.000000000000000000 ) ) ;
#38 = CARTESIAN_POINT ( 'NONE',  ( 0.000000000000000000, 0.000000000000000000, 0.000000000000000000 ) ) ;
#39 = DIRECTION ( 'NONE',  ( 1.000000000000000000, 0.000000000000000000, 0.000000000000000000 ) ) ;
#40 = APPROVAL_STATUS ( 'not_yet_approved' ) ;
#41 = CARTESIAN_POINT ( 'NONE',  ( -2.000000000000000000, 0.000000000000000000, 0.000000000000000000 ) ) ;
#42 = ORIENTED_EDGE ( 'NONE', *, *, #61, .T. ) ;
#43 = APPROVAL_STATUS ( 'not_yet_approved' ) ;
#44 = ORIENTED_EDGE ( 'NONE', *, *, #255, .T. ) ;
#45 = CARTESIAN_POINT ( 'NONE',  ( -1.300000000000000266, 1.592040838891559342E-16, 1.999999999999996669 ) ) ;
#46 = DESIGN_CONTEXT ( 'detailed design', #158, 'design' ) ;
#47 = DIRECTION ( 'NONE',  ( 0.000000000000000000, 0.000000000000000000, 1.000000000000000000 ) ) ;
#48 = EDGE_CURVE ( 'NONE', #110, #259, #244, .T. ) ;
#49 = DIRECTION ( 'NONE',  ( -0.000000000000000000, -0.000000000000000000, -1.000000000000000000 ) ) ;
#50 = CC_DESIGN_PERSON_AND_ORGANIZATION_ASSIGNMENT ( #299, #178, ( #121 ) ) ;
#51 = DIRECTION ( 'NONE',  ( 1.000000000000000000, 0.000000000000000000, 0.000000000000000000 ) ) ;
#52 = EDGE_LOOP ( 'NONE', ( #54, #173 ) ) ;
#53 = VERTEX_POINT ( 'NONE', #256 ) ;
#54 = ORIENTED_EDGE ( 'NONE', *, *, #74, .T. ) ;
#55 = EDGE_CURVE ( 'NONE', #110, #229, #62, .T. ) ;
#56 = AXIS2_PLACEMENT_3D ( 'NONE', #286, #47, #51 ) ;
#57 = CC_DESIGN_PERSON_AND_ORGANIZATION_ASSIGNMENT ( #182, #294, ( #220 ) ) ;
#58 = APPROVAL_ROLE ( '' ) ;
#59 = DIRECTION ( 'NONE',  ( 1.000000000000000000, 0.000000000000000000, 0.000000000000000000 ) ) ;
#60 = ORIENTED_EDGE ( 'NONE', *, *, #48, .F. ) ;
#61 = EDGE_CURVE ( 'NONE', #229, #120, #264, .T. ) ;
#62 = LINE ( 'NONE', #254, #146 ) ;
#63 = ADVANCED_BREP_SHAPE_REPRESENTATION ( '5b8c', ( #75, #235 ), #296 ) ;
#64 = PERSON_AND_ORGANIZATION ( #100, #13 ) ;
#65 = ORIENTED_EDGE ( 'NONE', *, *, #127, .F. ) ;
#66 = EDGE_CURVE ( 'NONE', #36, #175, #166, .T. ) ;
#67 = COORDINATED_UNIVERSAL_TIME_OFFSET ( 1, 0, .AHEAD. ) ;
#68 = ORIENTED_EDGE ( 'NONE', *, *, #271, .F. ) ;
#69 = SHAPE_DEFINITION_REPRESENTATION ( #131, #63 ) ;
#70 = FACE_OUTER_BOUND ( 'NONE', #222, .T. ) ;
#71 = AXIS2_PLACEMENT_3D ( 'NONE', #94, #137, #203 ) ;
#72 = APPROVAL_PERSON_ORGANIZATION ( #258, #221, #164 ) ;
#73 = FACE_OUTER_BOUND ( 'NONE', #269, .T. ) ;
#74 = EDGE_CURVE ( 'NONE', #53, #278, #276, .T. ) ;
#75 = MANIFOLD_SOLID_BREP ( 'Zaoblit1', #260 ) ;
#76 = FACE_OUTER_BOUND ( 'NONE', #154, .T. ) ;
#77 = CIRCLE ( 'NONE', #71, 0.2000000000000000944 ) ;
#78 = CC_DESIGN_APPROVAL ( #215, ( #121 ) ) ;
#79 = DIRECTION ( 'NONE',  ( 1.000000000000000000, 0.000000000000000000, -0.000000000000000000 ) ) ;
#80 = CC_DESIGN_PERSON_AND_ORGANIZATION_ASSIGNMENT ( #87, #277, ( #220 ) ) ;
#81 = EDGE_LOOP ( 'NONE', ( #130, #82, #224, #195 ) ) ;
#82 = ORIENTED_EDGE ( 'NONE', *, *, #223, .F. ) ;
#83 = AXIS2_PLACEMENT_3D ( 'NONE', #262, #26, #190 ) ;
#84 = ORIENTED_EDGE ( 'NONE', *, *, #143, .F. ) ;
#85 = ORIENTED_EDGE ( 'NONE', *, *, #48, .T. ) ;
#86 = LOCAL_TIME ( 12, 34, 36.00000000000000000, #67 ) ;
#87 = PERSON_AND_ORGANIZATION ( #100, #13 ) ;
#88 = CARTESIAN_POINT ( 'NONE',  ( -1.100000000000000089, 0.000000000000000000, 127.0000000000000000 ) ) ;
#89 = DIRECTION ( 'NONE',  ( -0.000000000000000000, -0.000000000000000000, -1.000000000000000000 ) ) ;
#90 = ORIENTED_EDGE ( 'NONE', *, *, #66, .T. ) ;
#91 = AXIS2_PLACEMENT_3D ( 'NONE', #161, #159, #142 ) ;
#92 = APPROVAL_DATE_TIME ( #302, #103 ) ;
#93 = DIRECTION ( 'NONE',  ( 0.000000000000000000, 0.000000000000000000, 1.000000000000000000 ) ) ;
#94 = CARTESIAN_POINT ( 'NONE',  ( 1.300000000000000266, 0.000000000000000000, 2.199999999999993516 ) ) ;
#95 = CARTESIAN_POINT ( 'NONE',  ( 0.000000000000000000, 0.000000000000000000, 2.199999999999993516 ) ) ;
#96 = AXIS2_PLACEMENT_3D ( 'NONE', #273, #115, #59 ) ;
#97 = CARTESIAN_POINT ( 'NONE',  ( 0.000000000000000000, 0.000000000000000000, 0.000000000000000000 ) ) ;
#98 = DIRECTION ( 'NONE',  ( 1.000000000000000000, 0.000000000000000000, -0.000000000000000000 ) ) ;
#99 = CARTESIAN_POINT ( 'NONE',  ( -2.000000000000000000, 0.000000000000000000, 2.000000000000000000 ) ) ;
#100 = PERSON ( 'NEURÈENÝ', 'NEURÈENÝ', 'NEURÈENÝ', ('NEURÈENÝ'), ('NEURÈENÝ'), ('NEURÈENÝ') ) ;
#101 = CARTESIAN_POINT ( 'NONE',  ( 0.000000000000000000, 0.000000000000000000, 2.000000000000000000 ) ) ;
#102 = CIRCLE ( 'NONE', #227, 1.100000000000000089 ) ;
#103 = APPROVAL ( #19, 'NEURÈENÝ' ) ;
#104 = ORIENTED_EDGE ( 'NONE', *, *, #108, .T. ) ;
#105 = ORIENTED_EDGE ( 'NONE', *, *, #61, .F. ) ;
#106 = CIRCLE ( 'NONE', #253, 1.100000000000000089 ) ;
#107 = APPROVAL_PERSON_ORGANIZATION ( #279, #215, #58 ) ;
#108 = EDGE_CURVE ( 'NONE', #133, #53, #77, .T. ) ;
#109 = APPROVAL_ROLE ( '' ) ;
#110 = VERTEX_POINT ( 'NONE', #280 ) ;
#111 = VECTOR ( 'NONE', #20, 1000.000000000000000 ) ;
#112 = DIRECTION ( 'NONE',  ( 0.000000000000000000, 0.000000000000000000, 1.000000000000000000 ) ) ;
#113 = UNCERTAINTY_MEASURE_WITH_UNIT (LENGTH_MEASURE( 1.000000000000000082E-05 ), #196, 'distance_accuracy_value', 'NONE');
#114 = MECHANICAL_CONTEXT ( 'NONE', #163, 'mechanical' ) ;
#115 = DIRECTION ( 'NONE',  ( 0.000000000000000000, 0.000000000000000000, 1.000000000000000000 ) ) ;
#116 = COORDINATED_UNIVERSAL_TIME_OFFSET ( 1, 0, .AHEAD. ) ;
#117 = CARTESIAN_POINT ( 'NONE',  ( 1.100000000000000089, 1.347111479062088503E-16, 2.199999999999993516 ) ) ;
#118 = VECTOR ( 'NONE', #49, 1000.000000000000000 ) ;
#119 = APPLICATION_PROTOCOL_DEFINITION ( 'international standard', 'config_control_design', 1994, #158 ) ;
#120 = VERTEX_POINT ( 'NONE', #41 ) ;
#121 = PRODUCT_DEFINITION ( 'NEZNÁMÝ', '', #220, #46 ) ;
#122 = FACE_OUTER_BOUND ( 'NONE', #32, .T. ) ;
#123 = DIRECTION ( 'NONE',  ( 0.000000000000000000, 0.000000000000000000, 1.000000000000000000 ) ) ;
#124 = CARTESIAN_POINT ( 'NONE',  ( 1.100000000000000089, 1.347111479062088503E-16, 127.0000000000000000 ) ) ;
#125 = DIRECTION ( 'NONE',  ( -1.000000000000000000, 0.000000000000000000, 0.000000000000000000 ) ) ;
#126 = FACE_BOUND ( 'NONE', #52, .T. ) ;
#127 = EDGE_CURVE ( 'NONE', #259, #120, #18, .T. ) ;
#128 = PRODUCT_RELATED_PRODUCT_CATEGORY ( 'detail', '', ( #216 ) ) ;
#129 =( NAMED_UNIT ( * ) PLANE_ANGLE_UNIT ( ) SI_UNIT ( $, .RADIAN. ) );
#130 = ORIENTED_EDGE ( 'NONE', *, *, #55, .F. ) ;
#131 = PRODUCT_DEFINITION_SHAPE ( 'NONE', 'NONE',  #121 ) ;
#132 = APPLICATION_PROTOCOL_DEFINITION ( 'international standard', 'config_control_design', 1994, #163 ) ;
#133 = VERTEX_POINT ( 'NONE', #117 ) ;
#134 = DATE_AND_TIME ( #272, #86 ) ;
#135 = DIRECTION ( 'NONE',  ( 1.000000000000000000, 0.000000000000000000, 0.000000000000000000 ) ) ;
#136 = PERSON_AND_ORGANIZATION_ROLE ( 'design_owner' ) ;
#137 = DIRECTION ( 'NONE',  ( 0.000000000000000000, -1.000000000000000000, 0.000000000000000000 ) ) ;
#138 = APPROVAL_DATE_TIME ( #12, #215 ) ;
#139 = ORIENTED_EDGE ( 'NONE', *, *, #185, .T. ) ;
#140 = EDGE_LOOP ( 'NONE', ( #209, #139, #270, #233 ) ) ;
#141 = COORDINATED_UNIVERSAL_TIME_OFFSET ( 1, 0, .AHEAD. ) ;
#142 = DIRECTION ( 'NONE',  ( -1.000000000000000000, 0.000000000000000000, 0.000000000000000000 ) ) ;
#143 = EDGE_CURVE ( 'NONE', #175, #36, #102, .T. ) ;
#144 = DIRECTION ( 'NONE',  ( 0.000000000000000000, 0.000000000000000000, 1.000000000000000000 ) ) ;
#145 = DIRECTION ( 'NONE',  ( 0.000000000000000000, 0.000000000000000000, 1.000000000000000000 ) ) ;
#146 = VECTOR ( 'NONE', #176, 1000.000000000000000 ) ;
#147 = CARTESIAN_POINT ( 'NONE',  ( -1.300000000000000266, 1.592040838891559342E-16, 2.199999999999993516 ) ) ;
#148 = ADVANCED_FACE ( 'NONE', ( #70 ), #211, .T. ) ;
#149 = CARTESIAN_POINT ( 'NONE',  ( 0.000000000000000000, 0.000000000000000000, 127.0000000000000000 ) ) ;
#150 = DIRECTION ( 'NONE',  ( 1.000000000000000000, 0.000000000000000000, 0.000000000000000000 ) ) ;
#151 = CC_DESIGN_APPROVAL ( #221, ( #248 ) ) ;
#152 = ORIENTED_EDGE ( 'NONE', *, *, #180, .T. ) ;
#153 = APPROVAL_PERSON_ORGANIZATION ( #14, #103, #109 ) ;
#154 = EDGE_LOOP ( 'NONE', ( #226, #152, #35, #157 ) ) ;
#155 = ADVANCED_FACE ( 'NONE', ( #122 ), #167, .T. ) ;
#156 = ORIENTED_EDGE ( 'NONE', *, *, #246, .F. ) ;
#157 = ORIENTED_EDGE ( 'NONE', *, *, #9, .F. ) ;
#158 = APPLICATION_CONTEXT ( 'configuration controlled 3d designs of mechanical parts and assemblies' ) ;
#159 = DIRECTION ( 'NONE',  ( -0.000000000000000000, -0.000000000000000000, -1.000000000000000000 ) ) ;
#160 = AXIS2_PLACEMENT_3D ( 'NONE', #95, #123, #150 ) ;
#161 = CARTESIAN_POINT ( 'NONE',  ( 0.000000000000000000, 0.000000000000000000, 2.000000000000000000 ) ) ;
#162 = CARTESIAN_POINT ( 'NONE',  ( 0.000000000000000000, 0.000000000000000000, 2.000000000000000000 ) ) ;
#163 = APPLICATION_CONTEXT ( 'configuration controlled 3d designs of mechanical parts and assemblies' ) ;
#164 = APPROVAL_ROLE ( '' ) ;
#165 = ORIENTED_EDGE ( 'NONE', *, *, #9, .T. ) ;
#166 = CIRCLE ( 'NONE', #282, 1.100000000000000089 ) ;
#167 = PLANE ( 'NONE',  #268 ) ;
#168 = CARTESIAN_POINT ( 'NONE',  ( 0.000000000000000000, 0.000000000000000000, 2.000000000000000000 ) ) ;
#169 = PLANE ( 'NONE',  #287 ) ;
#170 = CARTESIAN_POINT ( 'NONE',  ( 0.000000000000000000, 0.000000000000000000, 127.0000000000000000 ) ) ;
#171 = LOCAL_TIME ( 12, 34, 36.00000000000000000, #116 ) ;
#172 = CARTESIAN_POINT ( 'NONE',  ( 0.000000000000000000, 0.000000000000000000, 2.000000000000000000 ) ) ;
#173 = ORIENTED_EDGE ( 'NONE', *, *, #271, .T. ) ;
#174 = AXIS2_PLACEMENT_3D ( 'NONE', #147, #241, #261 ) ;
#175 = VERTEX_POINT ( 'NONE', #1 ) ;
#176 = DIRECTION ( 'NONE',  ( -0.000000000000000000, -0.000000000000000000, -1.000000000000000000 ) ) ;
#177 = DIRECTION ( 'NONE',  ( 1.000000000000000000, 0.000000000000000000, 0.000000000000000000 ) ) ;
#178 = PERSON_AND_ORGANIZATION_ROLE ( 'creator' ) ;
#179 = CARTESIAN_POINT ( 'NONE',  ( 0.000000000000000000, 0.000000000000000000, 2.000000000000000000 ) ) ;
#180 = EDGE_CURVE ( 'NONE', #36, #133, #28, .T. ) ;
#181 = CIRCLE ( 'NONE', #304, 1.300000000000000266 ) ;
#182 = PERSON_AND_ORGANIZATION ( #100, #13 ) ;
#183 = DIRECTION ( 'NONE',  ( 1.000000000000000000, 0.000000000000000000, 0.000000000000000000 ) ) ;
#184 = FACE_OUTER_BOUND ( 'NONE', #81, .T. ) ;
#185 = EDGE_CURVE ( 'NONE', #274, #278, #247, .T. ) ;
#186 = DIRECTION ( 'NONE',  ( -0.000000000000000000, -0.000000000000000000, -1.000000000000000000 ) ) ;
#187 = VECTOR ( 'NONE', #252, 1000.000000000000000 ) ;
#188 = AXIS2_PLACEMENT_3D ( 'NONE', #149, #263, #242 ) ;
#189 = DIRECTION ( 'NONE',  ( 0.000000000000000000, 0.000000000000000000, 1.000000000000000000 ) ) ;
#190 = DIRECTION ( 'NONE',  ( 1.000000000000000000, 0.000000000000000000, 0.000000000000000000 ) ) ;
#191 = CARTESIAN_POINT ( 'NONE',  ( 2.000000000000000000, 2.449293598294706414E-16, 0.000000000000000000 ) ) ;
#192 = ADVANCED_FACE ( 'NONE', ( #73 ), #29, .T. ) ;
#193 = DIRECTION ( 'NONE',  ( 0.000000000000000000, 0.000000000000000000, 1.000000000000000000 ) ) ;
#194 = LOCAL_TIME ( 12, 34, 36.00000000000000000, #230 ) ;
#195 = ORIENTED_EDGE ( 'NONE', *, *, #266, .T. ) ;
#196 =( LENGTH_UNIT ( ) NAMED_UNIT ( * ) SI_UNIT ( .MILLI., .METRE. ) );
#197 = APPROVAL_DATE_TIME ( #11, #221 ) ;
#198 = DATE_TIME_ROLE ( 'creation_date' ) ;
#199 = LINE ( 'NONE', #88, #187 ) ;
#200 = AXIS2_PLACEMENT_3D ( 'NONE', #179, #89, #177 ) ;
#201 = CARTESIAN_POINT ( 'NONE',  ( 1.100000000000000089, 1.347111479062088503E-16, 127.0000000000000000 ) ) ;
#202 = DIRECTION ( 'NONE',  ( 0.000000000000000000, 0.000000000000000000, 1.000000000000000000 ) ) ;
#203 = DIRECTION ( 'NONE',  ( 0.000000000000000000, 0.000000000000000000, -1.000000000000000000 ) ) ;
#204 = DIRECTION ( 'NONE',  ( 1.000000000000000000, 0.000000000000000000, 0.000000000000000000 ) ) ;
#205 = CARTESIAN_POINT ( 'NONE',  ( -2.000000000000000000, 0.000000000000000000, 2.000000000000000000 ) ) ;
#206 = AXIS2_PLACEMENT_3D ( 'NONE', #214, #6, #289 ) ;
#207 = CC_DESIGN_SECURITY_CLASSIFICATION ( #248, ( #220 ) ) ;
#208 = CALENDAR_DATE ( 2022, 7, 7 ) ;
#209 = ORIENTED_EDGE ( 'NONE', *, *, #255, .F. ) ;
#210 = DIRECTION ( 'NONE',  ( -1.000000000000000000, 0.000000000000000000, 0.000000000000000000 ) ) ;
#211 = CYLINDRICAL_SURFACE ( 'NONE', #292, 1.100000000000000089 ) ;
#212 = TOROIDAL_SURFACE ( 'NONE', #83, 1.300000000000000266, 0.2000000000000000111 ) ;
#213 = ADVANCED_FACE ( 'NONE', ( #281 ), #212, .F. ) ;
#214 = CARTESIAN_POINT ( 'NONE',  ( 0.000000000000000000, 0.000000000000000000, 2.000000000000000000 ) ) ;
#215 = APPROVAL ( #40, 'NEURÈENÝ' ) ;
#216 = PRODUCT ( '5b8c', '5b8c', '', ( #114 ) ) ;
#217 = DIRECTION ( 'NONE',  ( 1.000000000000000000, 0.000000000000000000, 0.000000000000000000 ) ) ;
#218 = FACE_OUTER_BOUND ( 'NONE', #245, .T. ) ;
#219 =( NAMED_UNIT ( * ) SI_UNIT ( $, .STERADIAN. ) SOLID_ANGLE_UNIT ( ) );
#220 = PRODUCT_DEFINITION_FORMATION_WITH_SPECIFIED_SOURCE ( 'LIBOVOLNÝ', '', #216, .NOT_KNOWN. ) ;
#221 = APPROVAL ( #43, 'NEURÈENÝ' ) ;
#222 = EDGE_LOOP ( 'NONE', ( #291, #84, #165, #44 ) ) ;
#223 = EDGE_CURVE ( 'NONE', #259, #110, #240, .T. ) ;
#224 = ORIENTED_EDGE ( 'NONE', *, *, #127, .T. ) ;
#225 = PERSON_AND_ORGANIZATION ( #100, #13 ) ;
#226 = ORIENTED_EDGE ( 'NONE', *, *, #66, .F. ) ;
#227 = AXIS2_PLACEMENT_3D ( 'NONE', #303, #93, #183 ) ;
#228 = CALENDAR_DATE ( 2022, 7, 7 ) ;
#229 = VERTEX_POINT ( 'NONE', #191 ) ;
#230 = COORDINATED_UNIVERSAL_TIME_OFFSET ( 1, 0, .AHEAD. ) ;
#231 = ORIENTED_EDGE ( 'NONE', *, *, #55, .T. ) ;
#232 = CALENDAR_DATE ( 2022, 7, 7 ) ;
#233 = ORIENTED_EDGE ( 'NONE', *, *, #108, .F. ) ;
#234 = AXIS2_PLACEMENT_3D ( 'NONE', #101, #193, #79 ) ;
#235 = AXIS2_PLACEMENT_3D ( 'NONE', #38, #202, #204 ) ;
#236 = CALENDAR_DATE ( 2022, 7, 7 ) ;
#237 = CYLINDRICAL_SURFACE ( 'NONE', #91, 2.000000000000000000 ) ;
#238 = FACE_OUTER_BOUND ( 'NONE', #23, .T. ) ;
#239 = DIRECTION ( 'NONE',  ( -0.000000000000000000, -0.000000000000000000, -1.000000000000000000 ) ) ;
#240 = CIRCLE ( 'NONE', #206, 2.000000000000000000 ) ;
#241 = DIRECTION ( 'NONE',  ( 1.224646799147353207E-16, 1.000000000000000000, -0.000000000000000000 ) ) ;
#242 = DIRECTION ( 'NONE',  ( -1.000000000000000000, 0.000000000000000000, 0.000000000000000000 ) ) ;
#243 = CYLINDRICAL_SURFACE ( 'NONE', #188, 1.100000000000000089 ) ;
#244 = CIRCLE ( 'NONE', #4, 2.000000000000000000 ) ;
#245 = EDGE_LOOP ( 'NONE', ( #15, #85 ) ) ;
#246 = EDGE_CURVE ( 'NONE', #133, #274, #106, .T. ) ;
#247 = CIRCLE ( 'NONE', #174, 0.2000000000000000944 ) ;
#248 = SECURITY_CLASSIFICATION ( '', '', #306 ) ;
#249 = ORIENTED_EDGE ( 'NONE', *, *, #143, .T. ) ;
#250 = PERSON_AND_ORGANIZATION_ROLE ( 'classification_officer' ) ;
#251 = CARTESIAN_POINT ( 'NONE',  ( 0.000000000000000000, 0.000000000000000000, 127.0000000000000000 ) ) ;
#252 = DIRECTION ( 'NONE',  ( -0.000000000000000000, -0.000000000000000000, -1.000000000000000000 ) ) ;
#253 = AXIS2_PLACEMENT_3D ( 'NONE', #25, #144, #217 ) ;
#254 = CARTESIAN_POINT ( 'NONE',  ( 2.000000000000000000, 2.449293598294706414E-16, 2.000000000000000000 ) ) ;
#255 = EDGE_CURVE ( 'NONE', #274, #133, #8, .T. ) ;
#256 = CARTESIAN_POINT ( 'NONE',  ( 1.300000000000000266, 0.000000000000000000, 1.999999999999996669 ) ) ;
#257 = CC_DESIGN_PERSON_AND_ORGANIZATION_ASSIGNMENT ( #64, #250, ( #248 ) ) ;
#258 = PERSON_AND_ORGANIZATION ( #100, #13 ) ;
#259 = VERTEX_POINT ( 'NONE', #99 ) ;
#260 = CLOSED_SHELL ( 'NONE', ( #34, #293, #192, #16, #300, #290, #148, #155, #213 ) ) ;
#261 = DIRECTION ( 'NONE',  ( -1.000000000000000000, 1.224646799147353207E-16, 0.000000000000000000 ) ) ;
#262 = CARTESIAN_POINT ( 'NONE',  ( 0.000000000000000000, 0.000000000000000000, 2.199999999999993516 ) ) ;
#263 = DIRECTION ( 'NONE',  ( -0.000000000000000000, -0.000000000000000000, -1.000000000000000000 ) ) ;
#264 = CIRCLE ( 'NONE', #96, 2.000000000000000000 ) ;
#265 = CARTESIAN_POINT ( 'NONE',  ( 0.000000000000000000, 0.000000000000000000, 127.0000000000000000 ) ) ;
#266 = EDGE_CURVE ( 'NONE', #120, #229, #27, .T. ) ;
#267 = EDGE_LOOP ( 'NONE', ( #31, #156, #104, #68 ) ) ;
#268 = AXIS2_PLACEMENT_3D ( 'NONE', #265, #145, #98 ) ;
#269 = EDGE_LOOP ( 'NONE', ( #60, #231, #42, #65 ) ) ;
#270 = ORIENTED_EDGE ( 'NONE', *, *, #74, .F. ) ;
#271 = EDGE_CURVE ( 'NONE', #278, #53, #181, .T. ) ;
#272 = CALENDAR_DATE ( 2022, 7, 7 ) ;
#273 = CARTESIAN_POINT ( 'NONE',  ( 0.000000000000000000, 0.000000000000000000, 0.000000000000000000 ) ) ;
#274 = VERTEX_POINT ( 'NONE', #285 ) ;
#275 = ORIENTED_EDGE ( 'NONE', *, *, #266, .F. ) ;
#276 = CIRCLE ( 'NONE', #200, 1.300000000000000266 ) ;
#277 = PERSON_AND_ORGANIZATION_ROLE ( 'design_supplier' ) ;
#278 = VERTEX_POINT ( 'NONE', #45 ) ;
#279 = PERSON_AND_ORGANIZATION ( #100, #13 ) ;
#280 = CARTESIAN_POINT ( 'NONE',  ( 2.000000000000000000, 2.449293598294706414E-16, 2.000000000000000000 ) ) ;
#281 = FACE_OUTER_BOUND ( 'NONE', #267, .T. ) ;
#282 = AXIS2_PLACEMENT_3D ( 'NONE', #251, #37, #135 ) ;
#283 = CC_DESIGN_APPROVAL ( #103, ( #220 ) ) ;
#284 = DIRECTION ( 'NONE',  ( 1.000000000000000000, 0.000000000000000000, -0.000000000000000000 ) ) ;
#285 = CARTESIAN_POINT ( 'NONE',  ( -1.100000000000000089, 0.000000000000000000, 2.199999999999993516 ) ) ;
#286 = CARTESIAN_POINT ( 'NONE',  ( 0.000000000000000000, 0.000000000000000000, 0.000000000000000000 ) ) ;
#287 = AXIS2_PLACEMENT_3D ( 'NONE', #97, #189, #284 ) ;
#288 = LOCAL_TIME ( 12, 34, 36.00000000000000000, #10 ) ;
#289 = DIRECTION ( 'NONE',  ( 1.000000000000000000, 0.000000000000000000, 0.000000000000000000 ) ) ;
#290 = ADVANCED_FACE ( 'NONE', ( #238 ), #169, .F. ) ;
#291 = ORIENTED_EDGE ( 'NONE', *, *, #180, .F. ) ;
#292 = AXIS2_PLACEMENT_3D ( 'NONE', #170, #239, #210 ) ;
#293 = ADVANCED_FACE ( 'NONE', ( #76 ), #243, .T. ) ;
#294 = PERSON_AND_ORGANIZATION_ROLE ( 'creator' ) ;
#295 = TOROIDAL_SURFACE ( 'NONE', #30, 1.300000000000000266, 0.2000000000000000111 ) ;
#296 =( GEOMETRIC_REPRESENTATION_CONTEXT ( 3 ) GLOBAL_UNCERTAINTY_ASSIGNED_CONTEXT ( ( #113 ) ) GLOBAL_UNIT_ASSIGNED_CONTEXT ( ( #196, #129, #219 ) ) REPRESENTATION_CONTEXT ( 'NONE', 'WORKASPACE' ) );
#297 = FACE_OUTER_BOUND ( 'NONE', #140, .T. ) ;
#298 = DIRECTION ( 'NONE',  ( 0.000000000000000000, 0.000000000000000000, 1.000000000000000000 ) ) ;
#299 = PERSON_AND_ORGANIZATION ( #100, #13 ) ;
#300 = ADVANCED_FACE ( 'NONE', ( #126, #218 ), #7, .T. ) ;
#301 = DIRECTION ( 'NONE',  ( 1.000000000000000000, 0.000000000000000000, 0.000000000000000000 ) ) ;
#302 = DATE_AND_TIME ( #208, #171 ) ;
#303 = CARTESIAN_POINT ( 'NONE',  ( 0.000000000000000000, 0.000000000000000000, 127.0000000000000000 ) ) ;
#304 = AXIS2_PLACEMENT_3D ( 'NONE', #172, #186, #5 ) ;
#305 = CC_DESIGN_DATE_AND_TIME_ASSIGNMENT ( #17, #198, ( #121 ) ) ;
#306 = SECURITY_CLASSIFICATION_LEVEL ( 'unclassified' ) ;
#307 = CARTESIAN_POINT ( 'NONE',  ( 0.000000000000000000, 0.000000000000000000, 2.199999999999993516 ) ) ;
ENDSEC;
END-ISO-10303-21;
