ISO-10303-21;
HEADER;
FILE_DESCRIPTION (( 'STEP AP203' ),
    '1' );
FILE_NAME ('18fd.STEP',
    '2022-07-07T10:25:34',
    ( '' ),
    ( '' ),
    'SwSTEP 2.0',
    'SolidWorks 2019',
    '' );
FILE_SCHEMA (( 'CONFIG_CONTROL_DESIGN' ));
ENDSEC;

DATA;
#1 = CARTESIAN_POINT ( 'NONE',  ( 0.000000000000000000, 0.000000000000000000, 0.000000000000000000 ) ) ;
#2 = AXIS2_PLACEMENT_3D ( 'NONE', #1, #96, #242 ) ;
#3 = DIRECTION ( 'NONE',  ( 0.000000000000000000, 0.000000000000000000, 1.000000000000000000 ) ) ;
#4 = CARTESIAN_POINT ( 'NONE',  ( 0.000000000000000000, 0.000000000000000000, 3.000000000000000000 ) ) ;
#5 = UNCERTAINTY_MEASURE_WITH_UNIT (LENGTH_MEASURE( 1.000000000000000082E-05 ), #10, 'distance_accuracy_value', 'NONE');
#6 = AXIS2_PLACEMENT_3D ( 'NONE', #58, #151, #177 ) ;
#7 = DIRECTION ( 'NONE',  ( 1.000000000000000000, 0.000000000000000000, 0.000000000000000000 ) ) ;
#8 = DIRECTION ( 'NONE',  ( 1.000000000000000000, 0.000000000000000000, -0.000000000000000000 ) ) ;
#9 = CC_DESIGN_APPROVAL ( #43, ( #140 ) ) ;
#10 =( LENGTH_UNIT ( ) NAMED_UNIT ( * ) SI_UNIT ( .MILLI., .METRE. ) );
#11 = LINE ( 'NONE', #83, #101 ) ;
#12 = DIRECTION ( 'NONE',  ( -1.000000000000000000, 0.000000000000000000, 0.000000000000000000 ) ) ;
#13 = COORDINATED_UNIVERSAL_TIME_OFFSET ( 1, 0, .AHEAD. ) ;
#14 = APPROVAL_ROLE ( '' ) ;
#15 = DATE_AND_TIME ( #231, #225 ) ;
#16 = ORIENTED_EDGE ( 'NONE', *, *, #18, .T. ) ;
#17 = APPROVAL_PERSON_ORGANIZATION ( #42, #160, #156 ) ;
#18 = EDGE_CURVE ( 'NONE', #283, #290, #133, .T. ) ;
#19 = ORIENTED_EDGE ( 'NONE', *, *, #60, .T. ) ;
#20 = PERSON_AND_ORGANIZATION ( #108, #34 ) ;
#21 = AXIS2_PLACEMENT_3D ( 'NONE', #126, #250, #248 ) ;
#22 = DIRECTION ( 'NONE',  ( -0.000000000000000000, -0.000000000000000000, -1.000000000000000000 ) ) ;
#23 = ORIENTED_EDGE ( 'NONE', *, *, #106, .T. ) ;
#24 = FACE_OUTER_BOUND ( 'NONE', #190, .T. ) ;
#25 = VERTEX_POINT ( 'NONE', #185 ) ;
#26 = CYLINDRICAL_SURFACE ( 'NONE', #198, 4.000000000000000000 ) ;
#27 = DIRECTION ( 'NONE',  ( 1.000000000000000000, 0.000000000000000000, 0.000000000000000000 ) ) ;
#28 = CYLINDRICAL_SURFACE ( 'NONE', #277, 2.000000000000000000 ) ;
#29 = MANIFOLD_SOLID_BREP ( 'Zaoblit1', #81 ) ;
#30 = EDGE_CURVE ( 'NONE', #115, #213, #203, .T. ) ;
#31 = DIRECTION ( 'NONE',  ( 1.000000000000000000, 0.000000000000000000, 0.000000000000000000 ) ) ;
#32 = CIRCLE ( 'NONE', #294, 0.2000000000000000944 ) ;
#33 = DIRECTION ( 'NONE',  ( -0.000000000000000000, -0.000000000000000000, -1.000000000000000000 ) ) ;
#34 = ORGANIZATION ( 'NEURÈENÝ', 'NEURÈENÝ', '' ) ;
#35 = LINE ( 'NONE', #56, #117 ) ;
#36 = EDGE_CURVE ( 'NONE', #110, #25, #224, .T. ) ;
#37 = PERSON_AND_ORGANIZATION_ROLE ( 'creator' ) ;
#38 = VECTOR ( 'NONE', #304, 1000.000000000000000 ) ;
#39 = APPROVAL_STATUS ( 'not_yet_approved' ) ;
#40 = DATE_AND_TIME ( #299, #104 ) ;
#41 = EDGE_LOOP ( 'NONE', ( #51, #90, #16, #215 ) ) ;
#42 = PERSON_AND_ORGANIZATION ( #108, #34 ) ;
#43 = APPROVAL ( #214, 'NEURÈENÝ' ) ;
#44 = CARTESIAN_POINT ( 'NONE',  ( 0.000000000000000000, 0.000000000000000000, 3.000000000000000000 ) ) ;
#45 = CALENDAR_DATE ( 2022, 7, 7 ) ;
#46 = CARTESIAN_POINT ( 'NONE',  ( 0.000000000000000000, 0.000000000000000000, 0.000000000000000000 ) ) ;
#47 = EDGE_LOOP ( 'NONE', ( #265, #121, #99, #188 ) ) ;
#48 = PRODUCT_RELATED_PRODUCT_CATEGORY ( 'detail', '', ( #234 ) ) ;
#49 = EDGE_LOOP ( 'NONE', ( #162, #119, #266, #307 ) ) ;
#50 = LOCAL_TIME ( 12, 25, 34.00000000000000000, #205 ) ;
#51 = ORIENTED_EDGE ( 'NONE', *, *, #30, .F. ) ;
#52 = AXIS2_PLACEMENT_3D ( 'NONE', #247, #297, #8 ) ;
#53 = ORIENTED_EDGE ( 'NONE', *, *, #186, .T. ) ;
#54 = DIRECTION ( 'NONE',  ( 0.000000000000000000, 0.000000000000000000, 1.000000000000000000 ) ) ;
#55 = CARTESIAN_POINT ( 'NONE',  ( 2.000000000000000000, 2.449293598294706414E-16, 503.0000000000000000 ) ) ;
#56 = CARTESIAN_POINT ( 'NONE',  ( 4.000000000000000000, 4.898587196589412829E-16, 3.000000000000000000 ) ) ;
#57 = DIRECTION ( 'NONE',  ( -0.000000000000000000, -0.000000000000000000, -1.000000000000000000 ) ) ;
#58 = CARTESIAN_POINT ( 'NONE',  ( 0.000000000000000000, 0.000000000000000000, 503.0000000000000000 ) ) ;
#59 = FACE_OUTER_BOUND ( 'NONE', #66, .T. ) ;
#60 = EDGE_CURVE ( 'NONE', #69, #25, #306, .T. ) ;
#61 = PERSON_AND_ORGANIZATION_ROLE ( 'design_supplier' ) ;
#62 = EDGE_CURVE ( 'NONE', #289, #110, #161, .T. ) ;
#63 = COORDINATED_UNIVERSAL_TIME_OFFSET ( 1, 0, .AHEAD. ) ;
#64 = DIRECTION ( 'NONE',  ( -1.000000000000000000, 1.224646799147353207E-16, 0.000000000000000000 ) ) ;
#65 = PERSON_AND_ORGANIZATION ( #108, #34 ) ;
#66 = EDGE_LOOP ( 'NONE', ( #68, #221, #288, #71 ) ) ;
#67 = APPLICATION_CONTEXT ( 'configuration controlled 3d designs of mechanical parts and assemblies' ) ;
#68 = ORIENTED_EDGE ( 'NONE', *, *, #186, .F. ) ;
#69 = VERTEX_POINT ( 'NONE', #258 ) ;
#70 = ORIENTED_EDGE ( 'NONE', *, *, #168, .F. ) ;
#71 = ORIENTED_EDGE ( 'NONE', *, *, #62, .F. ) ;
#72 = CC_DESIGN_DATE_AND_TIME_ASSIGNMENT ( #278, #230, ( #154 ) ) ;
#73 = FACE_OUTER_BOUND ( 'NONE', #41, .T. ) ;
#74 = CIRCLE ( 'NONE', #21, 2.200000000000000178 ) ;
#75 = DIRECTION ( 'NONE',  ( 0.000000000000000000, -1.000000000000000000, 0.000000000000000000 ) ) ;
#76 = DESIGN_CONTEXT ( 'detailed design', #67, 'design' ) ;
#77 = TOROIDAL_SURFACE ( 'NONE', #273, 2.200000000000000178, 0.2000000000000000111 ) ;
#78 = DIRECTION ( 'NONE',  ( -0.000000000000000000, -0.000000000000000000, -1.000000000000000000 ) ) ;
#79 = EDGE_CURVE ( 'NONE', #213, #115, #249, .T. ) ;
#80 = CARTESIAN_POINT ( 'NONE',  ( -2.000000000000000000, 0.000000000000000000, 503.0000000000000000 ) ) ;
#81 = CLOSED_SHELL ( 'NONE', ( #216, #232, #97, #241, #129, #87, #264, #95, #82 ) ) ;
#82 = ADVANCED_FACE ( 'NONE', ( #138 ), #77, .F. ) ;
#83 = CARTESIAN_POINT ( 'NONE',  ( -4.000000000000000000, 0.000000000000000000, 3.000000000000000000 ) ) ;
#84 = COORDINATED_UNIVERSAL_TIME_OFFSET ( 1, 0, .AHEAD. ) ;
#85 = DATE_AND_TIME ( #182, #50 ) ;
#86 = PERSON_AND_ORGANIZATION ( #108, #34 ) ;
#87 = ADVANCED_FACE ( 'NONE', ( #24 ), #137, .F. ) ;
#88 = CC_DESIGN_SECURITY_CLASSIFICATION ( #183, ( #140 ) ) ;
#89 = APPROVAL_DATE_TIME ( #15, #160 ) ;
#90 = ORIENTED_EDGE ( 'NONE', *, *, #163, .T. ) ;
#91 = DIRECTION ( 'NONE',  ( 1.000000000000000000, 0.000000000000000000, 0.000000000000000000 ) ) ;
#92 = AXIS2_PLACEMENT_3D ( 'NONE', #226, #201, #27 ) ;
#93 = DIRECTION ( 'NONE',  ( 1.000000000000000000, 0.000000000000000000, 0.000000000000000000 ) ) ;
#94 = ORIENTED_EDGE ( 'NONE', *, *, #179, .T. ) ;
#95 = ADVANCED_FACE ( 'NONE', ( #238 ), #218, .T. ) ;
#96 = DIRECTION ( 'NONE',  ( 0.000000000000000000, 0.000000000000000000, 1.000000000000000000 ) ) ;
#97 = ADVANCED_FACE ( 'NONE', ( #73 ), #26, .T. ) ;
#98 = AXIS2_PLACEMENT_3D ( 'NONE', #193, #287, #93 ) ;
#99 = ORIENTED_EDGE ( 'NONE', *, *, #116, .T. ) ;
#100 = CARTESIAN_POINT ( 'NONE',  ( 4.000000000000000000, 4.898587196589412829E-16, 3.000000000000000000 ) ) ;
#101 = VECTOR ( 'NONE', #251, 1000.000000000000000 ) ;
#102 = CARTESIAN_POINT ( 'NONE',  ( 0.000000000000000000, 0.000000000000000000, 3.199999999999980638 ) ) ;
#103 = FACE_OUTER_BOUND ( 'NONE', #189, .T. ) ;
#104 = LOCAL_TIME ( 12, 25, 34.00000000000000000, #84 ) ;
#105 = CARTESIAN_POINT ( 'NONE',  ( 0.000000000000000000, 0.000000000000000000, 3.000000000000000000 ) ) ;
#106 = EDGE_CURVE ( 'NONE', #110, #211, #263, .T. ) ;
#107 = CYLINDRICAL_SURFACE ( 'NONE', #180, 4.000000000000000000 ) ;
#108 = PERSON ( 'NEURÈENÝ', 'NEURÈENÝ', 'NEURÈENÝ', ('NEURÈENÝ'), ('NEURÈENÝ'), ('NEURÈENÝ') ) ;
#109 = DATE_AND_TIME ( #134, #196 ) ;
#110 = VERTEX_POINT ( 'NONE', #244 ) ;
#111 = DIRECTION ( 'NONE',  ( 1.000000000000000000, 0.000000000000000000, 0.000000000000000000 ) ) ;
#112 = ORIENTED_EDGE ( 'NONE', *, *, #202, .T. ) ;
#113 = PERSON_AND_ORGANIZATION_ROLE ( 'design_owner' ) ;
#114 = ORIENTED_EDGE ( 'NONE', *, *, #79, .T. ) ;
#115 = VERTEX_POINT ( 'NONE', #100 ) ;
#116 = EDGE_CURVE ( 'NONE', #211, #69, #32, .T. ) ;
#117 = VECTOR ( 'NONE', #146, 1000.000000000000000 ) ;
#118 = DIRECTION ( 'NONE',  ( 0.000000000000000000, 0.000000000000000000, 1.000000000000000000 ) ) ;
#119 = ORIENTED_EDGE ( 'NONE', *, *, #36, .T. ) ;
#120 = DIRECTION ( 'NONE',  ( 0.000000000000000000, 0.000000000000000000, 1.000000000000000000 ) ) ;
#121 = ORIENTED_EDGE ( 'NONE', *, *, #285, .F. ) ;
#122 = ORIENTED_EDGE ( 'NONE', *, *, #168, .T. ) ;
#123 = APPROVAL ( #39, 'NEURÈENÝ' ) ;
#124 = CYLINDRICAL_SURFACE ( 'NONE', #130, 2.000000000000000000 ) ;
#125 = AXIS2_PLACEMENT_3D ( 'NONE', #131, #152, #7 ) ;
#126 = CARTESIAN_POINT ( 'NONE',  ( 0.000000000000000000, 0.000000000000000000, 3.000000000000000000 ) ) ;
#127 = FACE_OUTER_BOUND ( 'NONE', #261, .T. ) ;
#128 = FACE_OUTER_BOUND ( 'NONE', #243, .T. ) ;
#129 = ADVANCED_FACE ( 'NONE', ( #291, #128 ), #204, .T. ) ;
#130 = AXIS2_PLACEMENT_3D ( 'NONE', #229, #57, #12 ) ;
#131 = CARTESIAN_POINT ( 'NONE',  ( 0.000000000000000000, 0.000000000000000000, 0.000000000000000000 ) ) ;
#132 = PERSON_AND_ORGANIZATION ( #108, #34 ) ;
#133 = CIRCLE ( 'NONE', #2, 4.000000000000000000 ) ;
#134 = CALENDAR_DATE ( 2022, 7, 7 ) ;
#135 = SECURITY_CLASSIFICATION_LEVEL ( 'unclassified' ) ;
#136 = EDGE_LOOP ( 'NONE', ( #19, #112 ) ) ;
#137 = PLANE ( 'NONE',  #150 ) ;
#138 = FACE_OUTER_BOUND ( 'NONE', #47, .T. ) ;
#139 = ORIENTED_EDGE ( 'NONE', *, *, #174, .F. ) ;
#140 = PRODUCT_DEFINITION_FORMATION_WITH_SPECIFIED_SOURCE ( 'LIBOVOLNÝ', '', #234, .NOT_KNOWN. ) ;
#141 = VECTOR ( 'NONE', #175, 1000.000000000000000 ) ;
#142 = CARTESIAN_POINT ( 'NONE',  ( 0.000000000000000000, 0.000000000000000000, 3.000000000000000000 ) ) ;
#143 = ORIENTED_EDGE ( 'NONE', *, *, #30, .T. ) ;
#144 = DIRECTION ( 'NONE',  ( 1.000000000000000000, 0.000000000000000000, 0.000000000000000000 ) ) ;
#145 = CC_DESIGN_PERSON_AND_ORGANIZATION_ASSIGNMENT ( #86, #113, ( #234 ) ) ;
#146 = DIRECTION ( 'NONE',  ( -0.000000000000000000, -0.000000000000000000, -1.000000000000000000 ) ) ;
#147 = CARTESIAN_POINT ( 'NONE',  ( 2.000000000000000000, 2.449293598294706414E-16, 3.199999999999980638 ) ) ;
#148 = CARTESIAN_POINT ( 'NONE',  ( 2.000000000000000000, 2.449293598294706414E-16, 503.0000000000000000 ) ) ;
#149 = CC_DESIGN_PERSON_AND_ORGANIZATION_ASSIGNMENT ( #132, #37, ( #154 ) ) ;
#150 = AXIS2_PLACEMENT_3D ( 'NONE', #46, #120, #219 ) ;
#151 = DIRECTION ( 'NONE',  ( 0.000000000000000000, 0.000000000000000000, 1.000000000000000000 ) ) ;
#152 = DIRECTION ( 'NONE',  ( 0.000000000000000000, 0.000000000000000000, 1.000000000000000000 ) ) ;
#153 = CC_DESIGN_APPROVAL ( #123, ( #154 ) ) ;
#154 = PRODUCT_DEFINITION ( 'NEZNÁMÝ', '', #140, #76 ) ;
#155 = PERSON_AND_ORGANIZATION ( #108, #34 ) ;
#156 = APPROVAL_ROLE ( '' ) ;
#157 = SHAPE_DEFINITION_REPRESENTATION ( #262, #192 ) ;
#158 = DIRECTION ( 'NONE',  ( 1.224646799147353207E-16, 1.000000000000000000, -0.000000000000000000 ) ) ;
#159 = APPROVAL_STATUS ( 'not_yet_approved' ) ;
#160 = APPROVAL ( #159, 'NEURÈENÝ' ) ;
#161 = LINE ( 'NONE', #301, #38 ) ;
#162 = ORIENTED_EDGE ( 'NONE', *, *, #106, .F. ) ;
#163 = EDGE_CURVE ( 'NONE', #115, #283, #35, .T. ) ;
#164 = ORIENTED_EDGE ( 'NONE', *, *, #163, .F. ) ;
#165 = AXIS2_PLACEMENT_3D ( 'NONE', #142, #167, #209 ) ;
#166 = CC_DESIGN_APPROVAL ( #160, ( #183 ) ) ;
#167 = DIRECTION ( 'NONE',  ( -0.000000000000000000, -0.000000000000000000, -1.000000000000000000 ) ) ;
#168 = EDGE_CURVE ( 'NONE', #290, #283, #279, .T. ) ;
#169 = DIRECTION ( 'NONE',  ( -1.000000000000000000, 0.000000000000000000, 0.000000000000000000 ) ) ;
#170 = DIRECTION ( 'NONE',  ( 0.000000000000000000, 0.000000000000000000, 1.000000000000000000 ) ) ;
#171 = DIRECTION ( 'NONE',  ( -1.000000000000000000, 0.000000000000000000, 0.000000000000000000 ) ) ;
#172 = LOCAL_TIME ( 12, 25, 34.00000000000000000, #255 ) ;
#173 = CARTESIAN_POINT ( 'NONE',  ( -4.000000000000000000, 0.000000000000000000, 0.000000000000000000 ) ) ;
#174 = EDGE_CURVE ( 'NONE', #284, #211, #268, .T. ) ;
#175 = DIRECTION ( 'NONE',  ( -0.000000000000000000, -0.000000000000000000, -1.000000000000000000 ) ) ;
#176 = AXIS2_PLACEMENT_3D ( 'NONE', #257, #3, #195 ) ;
#177 = DIRECTION ( 'NONE',  ( 1.000000000000000000, 0.000000000000000000, 0.000000000000000000 ) ) ;
#178 = APPROVAL_ROLE ( '' ) ;
#179 = EDGE_CURVE ( 'NONE', #213, #290, #11, .T. ) ;
#180 = AXIS2_PLACEMENT_3D ( 'NONE', #105, #78, #171 ) ;
#181 = PERSON_AND_ORGANIZATION_ROLE ( 'classification_officer' ) ;
#182 = CALENDAR_DATE ( 2022, 7, 7 ) ;
#183 = SECURITY_CLASSIFICATION ( '', '', #135 ) ;
#184 = DATE_TIME_ROLE ( 'classification_date' ) ;
#185 = CARTESIAN_POINT ( 'NONE',  ( -2.200000000000000178, 2.694222958124177006E-16, 2.999999999999990674 ) ) ;
#186 = EDGE_CURVE ( 'NONE', #284, #289, #227, .T. ) ;
#187 = MECHANICAL_CONTEXT ( 'NONE', #282, 'mechanical' ) ;
#188 = ORIENTED_EDGE ( 'NONE', *, *, #202, .F. ) ;
#189 = EDGE_LOOP ( 'NONE', ( #164, #260, #94, #122 ) ) ;
#190 = EDGE_LOOP ( 'NONE', ( #70, #305 ) ) ;
#191 = CIRCLE ( 'NONE', #303, 2.000000000000000000 ) ;
#192 = ADVANCED_BREP_SHAPE_REPRESENTATION ( '18fd', ( #29, #252 ), #200 ) ;
#193 = CARTESIAN_POINT ( 'NONE',  ( 0.000000000000000000, 0.000000000000000000, 3.000000000000000000 ) ) ;
#194 = ORIENTED_EDGE ( 'NONE', *, *, #62, .T. ) ;
#195 = DIRECTION ( 'NONE',  ( 1.000000000000000000, 0.000000000000000000, -0.000000000000000000 ) ) ;
#196 = LOCAL_TIME ( 12, 25, 34.00000000000000000, #13 ) ;
#197 = CARTESIAN_POINT ( 'NONE',  ( 2.200000000000000178, 0.000000000000000000, 3.199999999999980638 ) ) ;
#198 = AXIS2_PLACEMENT_3D ( 'NONE', #4, #22, #169 ) ;
#199 = DIRECTION ( 'NONE',  ( -1.000000000000000000, 0.000000000000000000, 0.000000000000000000 ) ) ;
#200 =( GEOMETRIC_REPRESENTATION_CONTEXT ( 3 ) GLOBAL_UNCERTAINTY_ASSIGNED_CONTEXT ( ( #5 ) ) GLOBAL_UNIT_ASSIGNED_CONTEXT ( ( #10, #295, #210 ) ) REPRESENTATION_CONTEXT ( 'NONE', 'WORKASPACE' ) );
#201 = DIRECTION ( 'NONE',  ( 0.000000000000000000, 0.000000000000000000, 1.000000000000000000 ) ) ;
#202 = EDGE_CURVE ( 'NONE', #25, #69, #74, .T. ) ;
#203 = CIRCLE ( 'NONE', #245, 4.000000000000000000 ) ;
#204 = PLANE ( 'NONE',  #52 ) ;
#205 = COORDINATED_UNIVERSAL_TIME_OFFSET ( 1, 0, .AHEAD. ) ;
#206 = APPLICATION_PROTOCOL_DEFINITION ( 'international standard', 'config_control_design', 1994, #282 ) ;
#207 = AXIS2_PLACEMENT_3D ( 'NONE', #233, #158, #64 ) ;
#208 = CC_DESIGN_PERSON_AND_ORGANIZATION_ASSIGNMENT ( #298, #300, ( #140 ) ) ;
#209 = DIRECTION ( 'NONE',  ( 1.000000000000000000, 0.000000000000000000, 0.000000000000000000 ) ) ;
#210 =( NAMED_UNIT ( * ) SI_UNIT ( $, .STERADIAN. ) SOLID_ANGLE_UNIT ( ) );
#211 = VERTEX_POINT ( 'NONE', #147 ) ;
#212 = TOROIDAL_SURFACE ( 'NONE', #253, 2.200000000000000178, 0.2000000000000000111 ) ;
#213 = VERTEX_POINT ( 'NONE', #223 ) ;
#214 = APPROVAL_STATUS ( 'not_yet_approved' ) ;
#215 = ORIENTED_EDGE ( 'NONE', *, *, #179, .F. ) ;
#216 = ADVANCED_FACE ( 'NONE', ( #246 ), #212, .F. ) ;
#217 = APPROVAL_PERSON_ORGANIZATION ( #155, #123, #178 ) ;
#218 = PLANE ( 'NONE',  #176 ) ;
#219 = DIRECTION ( 'NONE',  ( 1.000000000000000000, 0.000000000000000000, -0.000000000000000000 ) ) ;
#220 = CC_DESIGN_PERSON_AND_ORGANIZATION_ASSIGNMENT ( #254, #181, ( #183 ) ) ;
#221 = ORIENTED_EDGE ( 'NONE', *, *, #174, .T. ) ;
#222 = CARTESIAN_POINT ( 'NONE',  ( 4.000000000000000000, 4.898587196589412829E-16, 0.000000000000000000 ) ) ;
#223 = CARTESIAN_POINT ( 'NONE',  ( -4.000000000000000000, 0.000000000000000000, 3.000000000000000000 ) ) ;
#224 = CIRCLE ( 'NONE', #207, 0.2000000000000000944 ) ;
#225 = LOCAL_TIME ( 12, 25, 34.00000000000000000, #63 ) ;
#226 = CARTESIAN_POINT ( 'NONE',  ( 0.000000000000000000, 0.000000000000000000, 503.0000000000000000 ) ) ;
#227 = CIRCLE ( 'NONE', #6, 2.000000000000000000 ) ;
#228 = CC_DESIGN_DATE_AND_TIME_ASSIGNMENT ( #85, #184, ( #183 ) ) ;
#229 = CARTESIAN_POINT ( 'NONE',  ( 0.000000000000000000, 0.000000000000000000, 503.0000000000000000 ) ) ;
#230 = DATE_TIME_ROLE ( 'creation_date' ) ;
#231 = CALENDAR_DATE ( 2022, 7, 7 ) ;
#232 = ADVANCED_FACE ( 'NONE', ( #59 ), #124, .T. ) ;
#233 = CARTESIAN_POINT ( 'NONE',  ( -2.200000000000000178, 2.694222958124177006E-16, 3.199999999999980638 ) ) ;
#234 = PRODUCT ( '18fd', '18fd', '', ( #187 ) ) ;
#235 = DIRECTION ( 'NONE',  ( 0.000000000000000000, 0.000000000000000000, 1.000000000000000000 ) ) ;
#236 = ORIENTED_EDGE ( 'NONE', *, *, #269, .T. ) ;
#237 = DIRECTION ( 'NONE',  ( 0.000000000000000000, 0.000000000000000000, 1.000000000000000000 ) ) ;
#238 = FACE_OUTER_BOUND ( 'NONE', #286, .T. ) ;
#239 = ORIENTED_EDGE ( 'NONE', *, *, #269, .F. ) ;
#240 = APPROVAL_PERSON_ORGANIZATION ( #20, #43, #14 ) ;
#241 = ADVANCED_FACE ( 'NONE', ( #103 ), #107, .T. ) ;
#242 = DIRECTION ( 'NONE',  ( 1.000000000000000000, 0.000000000000000000, 0.000000000000000000 ) ) ;
#243 = EDGE_LOOP ( 'NONE', ( #114, #143 ) ) ;
#244 = CARTESIAN_POINT ( 'NONE',  ( -2.000000000000000000, 0.000000000000000000, 3.199999999999980638 ) ) ;
#245 = AXIS2_PLACEMENT_3D ( 'NONE', #44, #235, #111 ) ;
#246 = FACE_OUTER_BOUND ( 'NONE', #49, .T. ) ;
#247 = CARTESIAN_POINT ( 'NONE',  ( 0.000000000000000000, 0.000000000000000000, 3.000000000000000000 ) ) ;
#248 = DIRECTION ( 'NONE',  ( 1.000000000000000000, 0.000000000000000000, 0.000000000000000000 ) ) ;
#249 = CIRCLE ( 'NONE', #98, 4.000000000000000000 ) ;
#250 = DIRECTION ( 'NONE',  ( -0.000000000000000000, -0.000000000000000000, -1.000000000000000000 ) ) ;
#251 = DIRECTION ( 'NONE',  ( -0.000000000000000000, -0.000000000000000000, -1.000000000000000000 ) ) ;
#252 = AXIS2_PLACEMENT_3D ( 'NONE', #302, #237, #91 ) ;
#253 = AXIS2_PLACEMENT_3D ( 'NONE', #275, #170, #31 ) ;
#254 = PERSON_AND_ORGANIZATION ( #108, #34 ) ;
#255 = COORDINATED_UNIVERSAL_TIME_OFFSET ( 1, 0, .AHEAD. ) ;
#256 = APPROVAL_DATE_TIME ( #109, #123 ) ;
#257 = CARTESIAN_POINT ( 'NONE',  ( 0.000000000000000000, 0.000000000000000000, 503.0000000000000000 ) ) ;
#258 = CARTESIAN_POINT ( 'NONE',  ( 2.200000000000000178, 0.000000000000000000, 2.999999999999990674 ) ) ;
#259 = CARTESIAN_POINT ( 'NONE',  ( 0.000000000000000000, 0.000000000000000000, 3.199999999999980638 ) ) ;
#260 = ORIENTED_EDGE ( 'NONE', *, *, #79, .F. ) ;
#261 = EDGE_LOOP ( 'NONE', ( #139, #239, #194, #23 ) ) ;
#262 = PRODUCT_DEFINITION_SHAPE ( 'NONE', 'NONE',  #154 ) ;
#263 = CIRCLE ( 'NONE', #292, 2.000000000000000000 ) ;
#264 = ADVANCED_FACE ( 'NONE', ( #127 ), #28, .T. ) ;
#265 = ORIENTED_EDGE ( 'NONE', *, *, #36, .F. ) ;
#266 = ORIENTED_EDGE ( 'NONE', *, *, #60, .F. ) ;
#267 = CARTESIAN_POINT ( 'NONE',  ( 0.000000000000000000, 0.000000000000000000, 3.199999999999980638 ) ) ;
#268 = LINE ( 'NONE', #148, #141 ) ;
#269 = EDGE_CURVE ( 'NONE', #289, #284, #271, .T. ) ;
#270 = DIRECTION ( 'NONE',  ( 0.000000000000000000, 0.000000000000000000, 1.000000000000000000 ) ) ;
#271 = CIRCLE ( 'NONE', #92, 2.000000000000000000 ) ;
#272 = CARTESIAN_POINT ( 'NONE',  ( 0.000000000000000000, 0.000000000000000000, 503.0000000000000000 ) ) ;
#273 = AXIS2_PLACEMENT_3D ( 'NONE', #259, #118, #280 ) ;
#274 = CC_DESIGN_PERSON_AND_ORGANIZATION_ASSIGNMENT ( #65, #61, ( #140 ) ) ;
#275 = CARTESIAN_POINT ( 'NONE',  ( 0.000000000000000000, 0.000000000000000000, 3.199999999999980638 ) ) ;
#276 = APPROVAL_DATE_TIME ( #40, #43 ) ;
#277 = AXIS2_PLACEMENT_3D ( 'NONE', #272, #33, #199 ) ;
#278 = DATE_AND_TIME ( #45, #172 ) ;
#279 = CIRCLE ( 'NONE', #125, 4.000000000000000000 ) ;
#280 = DIRECTION ( 'NONE',  ( 1.000000000000000000, 0.000000000000000000, 0.000000000000000000 ) ) ;
#281 = APPLICATION_PROTOCOL_DEFINITION ( 'international standard', 'config_control_design', 1994, #67 ) ;
#282 = APPLICATION_CONTEXT ( 'configuration controlled 3d designs of mechanical parts and assemblies' ) ;
#283 = VERTEX_POINT ( 'NONE', #222 ) ;
#284 = VERTEX_POINT ( 'NONE', #55 ) ;
#285 = EDGE_CURVE ( 'NONE', #211, #110, #191, .T. ) ;
#286 = EDGE_LOOP ( 'NONE', ( #236, #53 ) ) ;
#287 = DIRECTION ( 'NONE',  ( 0.000000000000000000, 0.000000000000000000, 1.000000000000000000 ) ) ;
#288 = ORIENTED_EDGE ( 'NONE', *, *, #285, .T. ) ;
#289 = VERTEX_POINT ( 'NONE', #80 ) ;
#290 = VERTEX_POINT ( 'NONE', #173 ) ;
#291 = FACE_BOUND ( 'NONE', #136, .T. ) ;
#292 = AXIS2_PLACEMENT_3D ( 'NONE', #267, #54, #144 ) ;
#293 = DIRECTION ( 'NONE',  ( 1.000000000000000000, 0.000000000000000000, 0.000000000000000000 ) ) ;
#294 = AXIS2_PLACEMENT_3D ( 'NONE', #197, #75, #296 ) ;
#295 =( NAMED_UNIT ( * ) PLANE_ANGLE_UNIT ( ) SI_UNIT ( $, .RADIAN. ) );
#296 = DIRECTION ( 'NONE',  ( 0.000000000000000000, 0.000000000000000000, -1.000000000000000000 ) ) ;
#297 = DIRECTION ( 'NONE',  ( 0.000000000000000000, 0.000000000000000000, 1.000000000000000000 ) ) ;
#298 = PERSON_AND_ORGANIZATION ( #108, #34 ) ;
#299 = CALENDAR_DATE ( 2022, 7, 7 ) ;
#300 = PERSON_AND_ORGANIZATION_ROLE ( 'creator' ) ;
#301 = CARTESIAN_POINT ( 'NONE',  ( -2.000000000000000000, 0.000000000000000000, 503.0000000000000000 ) ) ;
#302 = CARTESIAN_POINT ( 'NONE',  ( 0.000000000000000000, 0.000000000000000000, 0.000000000000000000 ) ) ;
#303 = AXIS2_PLACEMENT_3D ( 'NONE', #102, #270, #293 ) ;
#304 = DIRECTION ( 'NONE',  ( -0.000000000000000000, -0.000000000000000000, -1.000000000000000000 ) ) ;
#305 = ORIENTED_EDGE ( 'NONE', *, *, #18, .F. ) ;
#306 = CIRCLE ( 'NONE', #165, 2.200000000000000178 ) ;
#307 = ORIENTED_EDGE ( 'NONE', *, *, #116, .F. ) ;
ENDSEC;
END-ISO-10303-21;
