ISO-10303-21;
HEADER;
FILE_DESCRIPTION (( 'STEP AP203' ),
    '1' );
FILE_NAME ('e257.STEP',
    '2022-07-07T10:38:17',
    ( '' ),
    ( '' ),
    'SwSTEP 2.0',
    'SolidWorks 2019',
    '' );
FILE_SCHEMA (( 'CONFIG_CONTROL_DESIGN' ));
ENDSEC;

DATA;
#1 = LINE ( 'NONE', #182, #162 ) ;
#2 = ORIENTED_EDGE ( 'NONE', *, *, #78, .T. ) ;
#3 = CYLINDRICAL_SURFACE ( 'NONE', #52, 0.8000000000000000444 ) ;
#4 = VECTOR ( 'NONE', #114, 1000.000000000000000 ) ;
#5 = CC_DESIGN_PERSON_AND_ORGANIZATION_ASSIGNMENT ( #35, #261, ( #287 ) ) ;
#6 = LOCAL_TIME ( 12, 38, 17.00000000000000000, #196 ) ;
#7 = DIRECTION ( 'NONE',  ( -0.000000000000000000, -0.000000000000000000, -1.000000000000000000 ) ) ;
#8 = CARTESIAN_POINT ( 'NONE',  ( -0.8000000000000000444, 0.000000000000000000, 126.5000000000000000 ) ) ;
#9 = DIRECTION ( 'NONE',  ( 1.000000000000000000, 0.000000000000000000, 0.000000000000000000 ) ) ;
#10 = CYLINDRICAL_SURFACE ( 'NONE', #163, 1.500000000000000222 ) ;
#11 = PERSON_AND_ORGANIZATION ( #89, #108 ) ;
#12 = EDGE_LOOP ( 'NONE', ( #138, #130 ) ) ;
#13 = FACE_OUTER_BOUND ( 'NONE', #275, .T. ) ;
#14 = EDGE_LOOP ( 'NONE', ( #45, #230, #306, #206 ) ) ;
#15 = ORIENTED_EDGE ( 'NONE', *, *, #178, .T. ) ;
#16 = DIRECTION ( 'NONE',  ( 1.000000000000000000, 0.000000000000000000, 0.000000000000000000 ) ) ;
#17 = APPROVAL_PERSON_ORGANIZATION ( #288, #153, #75 ) ;
#18 = EDGE_CURVE ( 'NONE', #280, #158, #205, .T. ) ;
#19 = DIRECTION ( 'NONE',  ( -1.000000000000000000, 1.224646799147351975E-16, 0.000000000000000000 ) ) ;
#20 = VERTEX_POINT ( 'NONE', #251 ) ;
#21 = DIRECTION ( 'NONE',  ( -1.000000000000000000, 0.000000000000000000, 0.000000000000000000 ) ) ;
#22 = ORIENTED_EDGE ( 'NONE', *, *, #115, .F. ) ;
#23 = CIRCLE ( 'NONE', #190, 1.500000000000000222 ) ;
#24 = CYLINDRICAL_SURFACE ( 'NONE', #304, 1.500000000000000222 ) ;
#25 = VECTOR ( 'NONE', #177, 1000.000000000000000 ) ;
#26 = EDGE_CURVE ( 'NONE', #154, #62, #260, .T. ) ;
#27 = APPROVAL_ROLE ( '' ) ;
#28 = APPROVAL_STATUS ( 'not_yet_approved' ) ;
#29 = DIRECTION ( 'NONE',  ( 1.000000000000000000, 0.000000000000000000, 0.000000000000000000 ) ) ;
#30 = DIRECTION ( 'NONE',  ( 0.000000000000000000, 0.000000000000000000, 1.000000000000000000 ) ) ;
#31 = AXIS2_PLACEMENT_3D ( 'NONE', #166, #32, #189 ) ;
#32 = DIRECTION ( 'NONE',  ( -0.000000000000000000, -0.000000000000000000, -1.000000000000000000 ) ) ;
#33 = CARTESIAN_POINT ( 'NONE',  ( -1.000000000000000000, 1.224646799147353207E-16, 1.500000000000003553 ) ) ;
#34 = CARTESIAN_POINT ( 'NONE',  ( 1.500000000000000222, 1.836970198721030181E-16, 0.000000000000000000 ) ) ;
#35 = PERSON_AND_ORGANIZATION ( #89, #108 ) ;
#36 = DIRECTION ( 'NONE',  ( 1.000000000000000000, 0.000000000000000000, 0.000000000000000000 ) ) ;
#37 = ORIENTED_EDGE ( 'NONE', *, *, #208, .F. ) ;
#38 = ADVANCED_FACE ( 'NONE', ( #41 ), #307, .F. ) ;
#39 = ORIENTED_EDGE ( 'NONE', *, *, #263, .T. ) ;
#40 = AXIS2_PLACEMENT_3D ( 'NONE', #93, #131, #227 ) ;
#41 = FACE_OUTER_BOUND ( 'NONE', #70, .T. ) ;
#42 = LOCAL_TIME ( 12, 38, 17.00000000000000000, #220 ) ;
#43 = ORIENTED_EDGE ( 'NONE', *, *, #289, .F. ) ;
#44 = CIRCLE ( 'NONE', #79, 0.8000000000000000444 ) ;
#45 = ORIENTED_EDGE ( 'NONE', *, *, #202, .F. ) ;
#46 = APPLICATION_CONTEXT ( 'configuration controlled 3d designs of mechanical parts and assemblies' ) ;
#47 = PLANE ( 'NONE',  #301 ) ;
#48 = ORIENTED_EDGE ( 'NONE', *, *, #26, .T. ) ;
#49 = DIRECTION ( 'NONE',  ( -1.000000000000000000, 0.000000000000000000, 0.000000000000000000 ) ) ;
#50 = TOROIDAL_SURFACE ( 'NONE', #259, 1.000000000000000000, 0.2000000000000000111 ) ;
#51 = EDGE_CURVE ( 'NONE', #154, #200, #61, .T. ) ;
#52 = AXIS2_PLACEMENT_3D ( 'NONE', #284, #161, #49 ) ;
#53 = APPROVAL_STATUS ( 'not_yet_approved' ) ;
#54 = DIRECTION ( 'NONE',  ( 0.000000000000000000, 0.000000000000000000, 1.000000000000000000 ) ) ;
#55 = EDGE_CURVE ( 'NONE', #255, #62, #278, .T. ) ;
#56 = APPLICATION_PROTOCOL_DEFINITION ( 'international standard', 'config_control_design', 1994, #46 ) ;
#57 = CARTESIAN_POINT ( 'NONE',  ( 0.000000000000000000, 0.000000000000000000, 126.5000000000000000 ) ) ;
#58 = DIRECTION ( 'NONE',  ( 1.000000000000000000, 0.000000000000000000, 0.000000000000000000 ) ) ;
#59 = AXIS2_PLACEMENT_3D ( 'NONE', #144, #241, #29 ) ;
#60 = FACE_BOUND ( 'NONE', #229, .T. ) ;
#61 = CIRCLE ( 'NONE', #254, 0.2000000000000000944 ) ;
#62 = VERTEX_POINT ( 'NONE', #179 ) ;
#63 = PRODUCT_DEFINITION ( 'NEZNÁMÝ', '', #287, #253 ) ;
#64 = EDGE_LOOP ( 'NONE', ( #134, #90, #109, #72 ) ) ;
#65 = AXIS2_PLACEMENT_3D ( 'NONE', #198, #147, #9 ) ;
#66 = VERTEX_POINT ( 'NONE', #34 ) ;
#67 = CARTESIAN_POINT ( 'NONE',  ( 0.8000000000000000444, 9.797174393178826150E-17, 126.5000000000000000 ) ) ;
#68 = UNCERTAINTY_MEASURE_WITH_UNIT (LENGTH_MEASURE( 1.000000000000000082E-05 ), #81, 'distance_accuracy_value', 'NONE');
#69 = DIRECTION ( 'NONE',  ( 0.000000000000000000, 0.000000000000000000, 1.000000000000000000 ) ) ;
#70 = EDGE_LOOP ( 'NONE', ( #223, #22 ) ) ;
#71 = CARTESIAN_POINT ( 'NONE',  ( 0.8000000000000000444, 9.797174393178826150E-17, 126.5000000000000000 ) ) ;
#72 = ORIENTED_EDGE ( 'NONE', *, *, #263, .F. ) ;
#73 = DIRECTION ( 'NONE',  ( -0.000000000000000000, -0.000000000000000000, -1.000000000000000000 ) ) ;
#74 = EDGE_CURVE ( 'NONE', #62, #154, #44, .T. ) ;
#75 = APPROVAL_ROLE ( '' ) ;
#76 = AXIS2_PLACEMENT_3D ( 'NONE', #57, #171, #106 ) ;
#77 = PERSON_AND_ORGANIZATION_ROLE ( 'design_owner' ) ;
#78 = EDGE_CURVE ( 'NONE', #87, #255, #110, .T. ) ;
#79 = AXIS2_PLACEMENT_3D ( 'NONE', #100, #298, #195 ) ;
#80 = CARTESIAN_POINT ( 'NONE',  ( -1.500000000000000222, 0.000000000000000000, 0.000000000000000000 ) ) ;
#81 =( LENGTH_UNIT ( ) NAMED_UNIT ( * ) SI_UNIT ( .MILLI., .METRE. ) );
#82 = CARTESIAN_POINT ( 'NONE',  ( 1.500000000000000222, 1.836970198721030181E-16, 1.500000000000000000 ) ) ;
#83 = DATE_AND_TIME ( #141, #186 ) ;
#84 = DIRECTION ( 'NONE',  ( 1.000000000000000000, 0.000000000000000000, 0.000000000000000000 ) ) ;
#85 = DIRECTION ( 'NONE',  ( -0.000000000000000000, -0.000000000000000000, -1.000000000000000000 ) ) ;
#86 = PERSON_AND_ORGANIZATION ( #89, #108 ) ;
#87 = VERTEX_POINT ( 'NONE', #8 ) ;
#88 = DIRECTION ( 'NONE',  ( 1.000000000000000000, 0.000000000000000000, 0.000000000000000000 ) ) ;
#89 = PERSON ( 'NEURÈENÝ', 'NEURÈENÝ', 'NEURÈENÝ', ('NEURÈENÝ'), ('NEURÈENÝ'), ('NEURÈENÝ') ) ;
#90 = ORIENTED_EDGE ( 'NONE', *, *, #55, .T. ) ;
#91 = TOROIDAL_SURFACE ( 'NONE', #65, 1.000000000000000000, 0.2000000000000000111 ) ;
#92 = CARTESIAN_POINT ( 'NONE',  ( 0.000000000000000000, 0.000000000000000000, 1.700000000000007061 ) ) ;
#93 = CARTESIAN_POINT ( 'NONE',  ( 0.000000000000000000, 0.000000000000000000, 0.000000000000000000 ) ) ;
#94 = ORIENTED_EDGE ( 'NONE', *, *, #157, .T. ) ;
#95 = CC_DESIGN_PERSON_AND_ORGANIZATION_ASSIGNMENT ( #243, #127, ( #287 ) ) ;
#96 = CARTESIAN_POINT ( 'NONE',  ( -0.8000000000000000444, 0.000000000000000000, 126.5000000000000000 ) ) ;
#97 = DIRECTION ( 'NONE',  ( -0.000000000000000000, -0.000000000000000000, -1.000000000000000000 ) ) ;
#98 = APPROVAL_PERSON_ORGANIZATION ( #291, #210, #27 ) ;
#99 = CALENDAR_DATE ( 2022, 7, 7 ) ;
#100 = CARTESIAN_POINT ( 'NONE',  ( 0.000000000000000000, 0.000000000000000000, 1.700000000000007061 ) ) ;
#101 = SECURITY_CLASSIFICATION_LEVEL ( 'unclassified' ) ;
#102 = CARTESIAN_POINT ( 'NONE',  ( 0.000000000000000000, 0.000000000000000000, 1.700000000000007061 ) ) ;
#103 = CARTESIAN_POINT ( 'NONE',  ( 0.000000000000000000, 0.000000000000000000, 1.500000000000000000 ) ) ;
#104 = DATE_AND_TIME ( #121, #149 ) ;
#105 = EDGE_LOOP ( 'NONE', ( #252, #302, #224, #279 ) ) ;
#106 = DIRECTION ( 'NONE',  ( 1.000000000000000000, 0.000000000000000000, -0.000000000000000000 ) ) ;
#107 = APPROVAL ( #53, 'NEURÈENÝ' ) ;
#108 = ORGANIZATION ( 'NEURÈENÝ', 'NEURÈENÝ', '' ) ;
#109 = ORIENTED_EDGE ( 'NONE', *, *, #74, .T. ) ;
#110 = CIRCLE ( 'NONE', #305, 0.8000000000000000444 ) ;
#111 = PRODUCT_RELATED_PRODUCT_CATEGORY ( 'detail', '', ( #266 ) ) ;
#112 = CC_DESIGN_APPROVAL ( #210, ( #63 ) ) ;
#113 = CARTESIAN_POINT ( 'NONE',  ( -1.000000000000000000, 1.224646799147353207E-16, 1.700000000000007061 ) ) ;
#114 = DIRECTION ( 'NONE',  ( -0.000000000000000000, -0.000000000000000000, -1.000000000000000000 ) ) ;
#115 = EDGE_CURVE ( 'NONE', #66, #158, #277, .T. ) ;
#116 = CARTESIAN_POINT ( 'NONE',  ( 0.000000000000000000, 0.000000000000000000, 1.500000000000000000 ) ) ;
#117 = FACE_OUTER_BOUND ( 'NONE', #14, .T. ) ;
#118 = AXIS2_PLACEMENT_3D ( 'NONE', #258, #139, #21 ) ;
#119 = FACE_OUTER_BOUND ( 'NONE', #64, .T. ) ;
#120 = APPROVAL_DATE_TIME ( #237, #107 ) ;
#121 = CALENDAR_DATE ( 2022, 7, 7 ) ;
#122 = CARTESIAN_POINT ( 'NONE',  ( 0.000000000000000000, 0.000000000000000000, 126.5000000000000000 ) ) ;
#123 = PERSON_AND_ORGANIZATION ( #89, #108 ) ;
#124 = CARTESIAN_POINT ( 'NONE',  ( 1.000000000000000000, 0.000000000000000000, 1.700000000000007061 ) ) ;
#125 = AXIS2_PLACEMENT_3D ( 'NONE', #126, #295, #267 ) ;
#126 = CARTESIAN_POINT ( 'NONE',  ( 0.000000000000000000, 0.000000000000000000, 0.000000000000000000 ) ) ;
#127 = PERSON_AND_ORGANIZATION_ROLE ( 'design_supplier' ) ;
#128 = DIRECTION ( 'NONE',  ( 0.000000000000000000, -1.000000000000000000, 0.000000000000000000 ) ) ;
#129 = ORIENTED_EDGE ( 'NONE', *, *, #26, .F. ) ;
#130 = ORIENTED_EDGE ( 'NONE', *, *, #202, .T. ) ;
#131 = DIRECTION ( 'NONE',  ( 0.000000000000000000, 0.000000000000000000, 1.000000000000000000 ) ) ;
#132 = APPROVAL_PERSON_ORGANIZATION ( #296, #107, #165 ) ;
#133 = LOCAL_TIME ( 12, 38, 17.00000000000000000, #191 ) ;
#134 = ORIENTED_EDGE ( 'NONE', *, *, #178, .F. ) ;
#135 = CIRCLE ( 'NONE', #125, 1.500000000000000222 ) ;
#136 = ORIENTED_EDGE ( 'NONE', *, *, #51, .T. ) ;
#137 = CARTESIAN_POINT ( 'NONE',  ( -1.500000000000000222, 0.000000000000000000, 1.500000000000000000 ) ) ;
#138 = ORIENTED_EDGE ( 'NONE', *, *, #187, .T. ) ;
#139 = DIRECTION ( 'NONE',  ( -0.000000000000000000, -0.000000000000000000, -1.000000000000000000 ) ) ;
#140 = CIRCLE ( 'NONE', #181, 1.000000000000000000 ) ;
#141 = CALENDAR_DATE ( 2022, 7, 7 ) ;
#142 = PRODUCT_DEFINITION_SHAPE ( 'NONE', 'NONE',  #63 ) ;
#143 = APPROVAL_STATUS ( 'not_yet_approved' ) ;
#144 = CARTESIAN_POINT ( 'NONE',  ( 0.000000000000000000, 0.000000000000000000, 0.000000000000000000 ) ) ;
#145 = CARTESIAN_POINT ( 'NONE',  ( 0.000000000000000000, 0.000000000000000000, 126.5000000000000000 ) ) ;
#146 = APPROVAL_DATE_TIME ( #104, #210 ) ;
#147 = DIRECTION ( 'NONE',  ( 0.000000000000000000, 0.000000000000000000, 1.000000000000000000 ) ) ;
#148 = DIRECTION ( 'NONE',  ( 1.000000000000000000, 0.000000000000000000, 0.000000000000000000 ) ) ;
#149 = LOCAL_TIME ( 12, 38, 17.00000000000000000, #173 ) ;
#150 = PERSON_AND_ORGANIZATION_ROLE ( 'creator' ) ;
#151 = DIRECTION ( 'NONE',  ( 0.000000000000000000, 0.000000000000000000, 1.000000000000000000 ) ) ;
#152 = ORIENTED_EDGE ( 'NONE', *, *, #290, .F. ) ;
#153 = APPROVAL ( #143, 'NEURÈENÝ' ) ;
#154 = VERTEX_POINT ( 'NONE', #217 ) ;
#155 = CARTESIAN_POINT ( 'NONE',  ( -1.500000000000000222, 0.000000000000000000, 1.500000000000000000 ) ) ;
#156 = CIRCLE ( 'NONE', #31, 1.000000000000000000 ) ;
#157 = EDGE_CURVE ( 'NONE', #158, #66, #135, .T. ) ;
#158 = VERTEX_POINT ( 'NONE', #80 ) ;
#159 = LINE ( 'NONE', #96, #262 ) ;
#160 = ORIENTED_EDGE ( 'NONE', *, *, #78, .F. ) ;
#161 = DIRECTION ( 'NONE',  ( -0.000000000000000000, -0.000000000000000000, -1.000000000000000000 ) ) ;
#162 = VECTOR ( 'NONE', #7, 1000.000000000000000 ) ;
#163 = AXIS2_PLACEMENT_3D ( 'NONE', #103, #85, #246 ) ;
#164 = PERSON_AND_ORGANIZATION_ROLE ( 'classification_officer' ) ;
#165 = APPROVAL_ROLE ( '' ) ;
#166 = CARTESIAN_POINT ( 'NONE',  ( 0.000000000000000000, 0.000000000000000000, 1.500000000000000000 ) ) ;
#167 = CARTESIAN_POINT ( 'NONE',  ( 0.000000000000000000, 0.000000000000000000, 0.000000000000000000 ) ) ;
#168 = ADVANCED_FACE ( 'NONE', ( #219 ), #10, .T. ) ;
#169 = DATE_TIME_ROLE ( 'classification_date' ) ;
#170 = CARTESIAN_POINT ( 'NONE',  ( 0.000000000000000000, 0.000000000000000000, 1.500000000000000000 ) ) ;
#171 = DIRECTION ( 'NONE',  ( 0.000000000000000000, 0.000000000000000000, 1.000000000000000000 ) ) ;
#172 = CC_DESIGN_APPROVAL ( #107, ( #273 ) ) ;
#173 = COORDINATED_UNIVERSAL_TIME_OFFSET ( 1, 0, .AHEAD. ) ;
#174 = ORIENTED_EDGE ( 'NONE', *, *, #222, .T. ) ;
#175 = PLANE ( 'NONE',  #76 ) ;
#176 = ORIENTED_EDGE ( 'NONE', *, *, #290, .T. ) ;
#177 = DIRECTION ( 'NONE',  ( -0.000000000000000000, -0.000000000000000000, -1.000000000000000000 ) ) ;
#178 = EDGE_CURVE ( 'NONE', #255, #87, #234, .T. ) ;
#179 = CARTESIAN_POINT ( 'NONE',  ( 0.8000000000000000444, 9.797174393178826150E-17, 1.700000000000007061 ) ) ;
#180 = EDGE_LOOP ( 'NONE', ( #257, #160, #39, #48 ) ) ;
#181 = AXIS2_PLACEMENT_3D ( 'NONE', #272, #297, #84 ) ;
#182 = CARTESIAN_POINT ( 'NONE',  ( 1.500000000000000222, 1.836970198721030181E-16, 1.500000000000000000 ) ) ;
#183 = VERTEX_POINT ( 'NONE', #82 ) ;
#184 = DIRECTION ( 'NONE',  ( 1.000000000000000000, 0.000000000000000000, -0.000000000000000000 ) ) ;
#185 = CC_DESIGN_DATE_AND_TIME_ASSIGNMENT ( #239, #169, ( #273 ) ) ;
#186 = LOCAL_TIME ( 12, 38, 17.00000000000000000, #293 ) ;
#187 = EDGE_CURVE ( 'NONE', #280, #183, #292, .T. ) ;
#188 = DATE_AND_TIME ( #99, #42 ) ;
#189 = DIRECTION ( 'NONE',  ( 1.000000000000000000, 0.000000000000000000, 0.000000000000000000 ) ) ;
#190 = AXIS2_PLACEMENT_3D ( 'NONE', #269, #151, #36 ) ;
#191 = COORDINATED_UNIVERSAL_TIME_OFFSET ( 1, 0, .AHEAD. ) ;
#192 = DIRECTION ( 'NONE',  ( 0.000000000000000000, 0.000000000000000000, 1.000000000000000000 ) ) ;
#193 = CALENDAR_DATE ( 2022, 7, 7 ) ;
#194 = DIRECTION ( 'NONE',  ( 0.000000000000000000, 0.000000000000000000, 1.000000000000000000 ) ) ;
#195 = DIRECTION ( 'NONE',  ( 1.000000000000000000, 0.000000000000000000, 0.000000000000000000 ) ) ;
#196 = COORDINATED_UNIVERSAL_TIME_OFFSET ( 1, 0, .AHEAD. ) ;
#197 = ORIENTED_EDGE ( 'NONE', *, *, #187, .F. ) ;
#198 = CARTESIAN_POINT ( 'NONE',  ( 0.000000000000000000, 0.000000000000000000, 1.700000000000007061 ) ) ;
#199 = ADVANCED_FACE ( 'NONE', ( #248 ), #91, .F. ) ;
#200 = VERTEX_POINT ( 'NONE', #33 ) ;
#201 = CLOSED_SHELL ( 'NONE', ( #199, #285, #286, #168, #240, #38, #264, #235, #212 ) ) ;
#202 = EDGE_CURVE ( 'NONE', #183, #280, #23, .T. ) ;
#203 = DIRECTION ( 'NONE',  ( 1.224646799147353207E-16, 1.000000000000000000, -0.000000000000000000 ) ) ;
#204 = AXIS2_PLACEMENT_3D ( 'NONE', #145, #54, #242 ) ;
#205 = LINE ( 'NONE', #155, #25 ) ;
#206 = ORIENTED_EDGE ( 'NONE', *, *, #18, .F. ) ;
#207 = ADVANCED_BREP_SHAPE_REPRESENTATION ( 'e257', ( #250, #59 ), #245 ) ;
#208 = EDGE_CURVE ( 'NONE', #62, #20, #216, .T. ) ;
#209 = DIRECTION ( 'NONE',  ( -1.000000000000000000, 0.000000000000000000, 0.000000000000000000 ) ) ;
#210 = APPROVAL ( #28, 'NEURÈENÝ' ) ;
#211 = FACE_OUTER_BOUND ( 'NONE', #12, .T. ) ;
#212 = ADVANCED_FACE ( 'NONE', ( #218 ), #50, .F. ) ;
#213 = CC_DESIGN_PERSON_AND_ORGANIZATION_ASSIGNMENT ( #86, #77, ( #266 ) ) ;
#214 = SHAPE_DEFINITION_REPRESENTATION ( #142, #207 ) ;
#215 = APPLICATION_PROTOCOL_DEFINITION ( 'international standard', 'config_control_design', 1994, #303 ) ;
#216 = CIRCLE ( 'NONE', #236, 0.2000000000000000944 ) ;
#217 = CARTESIAN_POINT ( 'NONE',  ( -0.8000000000000000444, 0.000000000000000000, 1.700000000000007061 ) ) ;
#218 = FACE_OUTER_BOUND ( 'NONE', #105, .T. ) ;
#219 = FACE_OUTER_BOUND ( 'NONE', #249, .T. ) ;
#220 = COORDINATED_UNIVERSAL_TIME_OFFSET ( 1, 0, .AHEAD. ) ;
#221 = DIRECTION ( 'NONE',  ( 0.000000000000000000, 0.000000000000000000, -1.000000000000000000 ) ) ;
#222 = EDGE_CURVE ( 'NONE', #200, #20, #140, .T. ) ;
#223 = ORIENTED_EDGE ( 'NONE', *, *, #157, .F. ) ;
#224 = ORIENTED_EDGE ( 'NONE', *, *, #208, .T. ) ;
#225 = AXIS2_PLACEMENT_3D ( 'NONE', #167, #192, #58 ) ;
#226 = CC_DESIGN_PERSON_AND_ORGANIZATION_ASSIGNMENT ( #123, #150, ( #63 ) ) ;
#227 = DIRECTION ( 'NONE',  ( 1.000000000000000000, 0.000000000000000000, -0.000000000000000000 ) ) ;
#228 = CC_DESIGN_APPROVAL ( #153, ( #287 ) ) ;
#229 = EDGE_LOOP ( 'NONE', ( #176, #174 ) ) ;
#230 = ORIENTED_EDGE ( 'NONE', *, *, #289, .T. ) ;
#231 = DIRECTION ( 'NONE',  ( 0.000000000000000000, 0.000000000000000000, 1.000000000000000000 ) ) ;
#232 = AXIS2_PLACEMENT_3D ( 'NONE', #170, #270, #244 ) ;
#233 = CYLINDRICAL_SURFACE ( 'NONE', #118, 0.8000000000000000444 ) ;
#234 = CIRCLE ( 'NONE', #204, 0.8000000000000000444 ) ;
#235 = ADVANCED_FACE ( 'NONE', ( #13 ), #175, .T. ) ;
#236 = AXIS2_PLACEMENT_3D ( 'NONE', #124, #128, #221 ) ;
#237 = DATE_AND_TIME ( #299, #6 ) ;
#238 = CC_DESIGN_PERSON_AND_ORGANIZATION_ASSIGNMENT ( #11, #164, ( #273 ) ) ;
#239 = DATE_AND_TIME ( #193, #133 ) ;
#240 = ADVANCED_FACE ( 'NONE', ( #60, #211 ), #47, .T. ) ;
#241 = DIRECTION ( 'NONE',  ( 0.000000000000000000, 0.000000000000000000, 1.000000000000000000 ) ) ;
#242 = DIRECTION ( 'NONE',  ( 1.000000000000000000, 0.000000000000000000, 0.000000000000000000 ) ) ;
#243 = PERSON_AND_ORGANIZATION ( #89, #108 ) ;
#244 = DIRECTION ( 'NONE',  ( 1.000000000000000000, 0.000000000000000000, 0.000000000000000000 ) ) ;
#245 =( GEOMETRIC_REPRESENTATION_CONTEXT ( 3 ) GLOBAL_UNCERTAINTY_ASSIGNED_CONTEXT ( ( #68 ) ) GLOBAL_UNIT_ASSIGNED_CONTEXT ( ( #81, #294, #265 ) ) REPRESENTATION_CONTEXT ( 'NONE', 'WORKASPACE' ) );
#246 = DIRECTION ( 'NONE',  ( -1.000000000000000000, 0.000000000000000000, 0.000000000000000000 ) ) ;
#247 = APPROVAL_DATE_TIME ( #83, #153 ) ;
#248 = FACE_OUTER_BOUND ( 'NONE', #300, .T. ) ;
#249 = EDGE_LOOP ( 'NONE', ( #43, #197, #276, #94 ) ) ;
#250 = MANIFOLD_SOLID_BREP ( 'Zaoblit1', #201 ) ;
#251 = CARTESIAN_POINT ( 'NONE',  ( 1.000000000000000000, 0.000000000000000000, 1.500000000000003553 ) ) ;
#252 = ORIENTED_EDGE ( 'NONE', *, *, #51, .F. ) ;
#253 = DESIGN_CONTEXT ( 'detailed design', #46, 'design' ) ;
#254 = AXIS2_PLACEMENT_3D ( 'NONE', #113, #203, #19 ) ;
#255 = VERTEX_POINT ( 'NONE', #71 ) ;
#256 = FACE_OUTER_BOUND ( 'NONE', #180, .T. ) ;
#257 = ORIENTED_EDGE ( 'NONE', *, *, #55, .F. ) ;
#258 = CARTESIAN_POINT ( 'NONE',  ( 0.000000000000000000, 0.000000000000000000, 126.5000000000000000 ) ) ;
#259 = AXIS2_PLACEMENT_3D ( 'NONE', #102, #194, #88 ) ;
#260 = CIRCLE ( 'NONE', #283, 0.8000000000000000444 ) ;
#261 = PERSON_AND_ORGANIZATION_ROLE ( 'creator' ) ;
#262 = VECTOR ( 'NONE', #73, 1000.000000000000000 ) ;
#263 = EDGE_CURVE ( 'NONE', #87, #154, #159, .T. ) ;
#264 = ADVANCED_FACE ( 'NONE', ( #256 ), #3, .T. ) ;
#265 =( NAMED_UNIT ( * ) SI_UNIT ( $, .STERADIAN. ) SOLID_ANGLE_UNIT ( ) );
#266 = PRODUCT ( 'e257', 'e257', '', ( #268 ) ) ;
#267 = DIRECTION ( 'NONE',  ( 1.000000000000000000, 0.000000000000000000, 0.000000000000000000 ) ) ;
#268 = MECHANICAL_CONTEXT ( 'NONE', #303, 'mechanical' ) ;
#269 = CARTESIAN_POINT ( 'NONE',  ( 0.000000000000000000, 0.000000000000000000, 1.500000000000000000 ) ) ;
#270 = DIRECTION ( 'NONE',  ( 0.000000000000000000, 0.000000000000000000, 1.000000000000000000 ) ) ;
#271 = DATE_TIME_ROLE ( 'creation_date' ) ;
#272 = CARTESIAN_POINT ( 'NONE',  ( 0.000000000000000000, 0.000000000000000000, 1.500000000000000000 ) ) ;
#273 = SECURITY_CLASSIFICATION ( '', '', #101 ) ;
#274 = CC_DESIGN_DATE_AND_TIME_ASSIGNMENT ( #188, #271, ( #63 ) ) ;
#275 = EDGE_LOOP ( 'NONE', ( #2, #15 ) ) ;
#276 = ORIENTED_EDGE ( 'NONE', *, *, #18, .T. ) ;
#277 = CIRCLE ( 'NONE', #225, 1.500000000000000222 ) ;
#278 = LINE ( 'NONE', #67, #4 ) ;
#279 = ORIENTED_EDGE ( 'NONE', *, *, #222, .F. ) ;
#280 = VERTEX_POINT ( 'NONE', #137 ) ;
#281 = CC_DESIGN_SECURITY_CLASSIFICATION ( #273, ( #287 ) ) ;
#282 = CARTESIAN_POINT ( 'NONE',  ( 0.000000000000000000, 0.000000000000000000, 1.500000000000000000 ) ) ;
#283 = AXIS2_PLACEMENT_3D ( 'NONE', #92, #69, #16 ) ;
#284 = CARTESIAN_POINT ( 'NONE',  ( 0.000000000000000000, 0.000000000000000000, 126.5000000000000000 ) ) ;
#285 = ADVANCED_FACE ( 'NONE', ( #119 ), #233, .T. ) ;
#286 = ADVANCED_FACE ( 'NONE', ( #117 ), #24, .T. ) ;
#287 = PRODUCT_DEFINITION_FORMATION_WITH_SPECIFIED_SOURCE ( 'LIBOVOLNÝ', '', #266, .NOT_KNOWN. ) ;
#288 = PERSON_AND_ORGANIZATION ( #89, #108 ) ;
#289 = EDGE_CURVE ( 'NONE', #183, #66, #1, .T. ) ;
#290 = EDGE_CURVE ( 'NONE', #20, #200, #156, .T. ) ;
#291 = PERSON_AND_ORGANIZATION ( #89, #108 ) ;
#292 = CIRCLE ( 'NONE', #232, 1.500000000000000222 ) ;
#293 = COORDINATED_UNIVERSAL_TIME_OFFSET ( 1, 0, .AHEAD. ) ;
#294 =( NAMED_UNIT ( * ) PLANE_ANGLE_UNIT ( ) SI_UNIT ( $, .RADIAN. ) );
#295 = DIRECTION ( 'NONE',  ( 0.000000000000000000, 0.000000000000000000, 1.000000000000000000 ) ) ;
#296 = PERSON_AND_ORGANIZATION ( #89, #108 ) ;
#297 = DIRECTION ( 'NONE',  ( -0.000000000000000000, -0.000000000000000000, -1.000000000000000000 ) ) ;
#298 = DIRECTION ( 'NONE',  ( 0.000000000000000000, 0.000000000000000000, 1.000000000000000000 ) ) ;
#299 = CALENDAR_DATE ( 2022, 7, 7 ) ;
#300 = EDGE_LOOP ( 'NONE', ( #129, #136, #152, #37 ) ) ;
#301 = AXIS2_PLACEMENT_3D ( 'NONE', #282, #231, #184 ) ;
#302 = ORIENTED_EDGE ( 'NONE', *, *, #74, .F. ) ;
#303 = APPLICATION_CONTEXT ( 'configuration controlled 3d designs of mechanical parts and assemblies' ) ;
#304 = AXIS2_PLACEMENT_3D ( 'NONE', #116, #97, #209 ) ;
#305 = AXIS2_PLACEMENT_3D ( 'NONE', #122, #30, #148 ) ;
#306 = ORIENTED_EDGE ( 'NONE', *, *, #115, .T. ) ;
#307 = PLANE ( 'NONE',  #40 ) ;
ENDSEC;
END-ISO-10303-21;
