ISO-10303-21;
HEADER;
FILE_DESCRIPTION (( 'STEP AP203' ),
    '1' );
FILE_NAME ('fd5b.STEP',
    '2022-07-07T10:28:29',
    ( '' ),
    ( '' ),
    'SwSTEP 2.0',
    'SolidWorks 2019',
    '' );
FILE_SCHEMA (( 'CONFIG_CONTROL_DESIGN' ));
ENDSEC;

DATA;
#1 = LOCAL_TIME ( 12, 28, 29.00000000000000000, #301 ) ;
#2 = CARTESIAN_POINT ( 'NONE',  ( 1.750000000000000000, 2.143131898507868297E-16, 3.199999999999994404 ) ) ;
#3 = ORIENTED_EDGE ( 'NONE', *, *, #63, .T. ) ;
#4 = ORIENTED_EDGE ( 'NONE', *, *, #239, .T. ) ;
#5 = DESIGN_CONTEXT ( 'detailed design', #303, 'design' ) ;
#6 = CARTESIAN_POINT ( 'NONE',  ( 0.000000000000000000, 0.000000000000000000, 3.000000000000000000 ) ) ;
#7 = DIRECTION ( 'NONE',  ( -0.000000000000000000, -0.000000000000000000, -1.000000000000000000 ) ) ;
#8 = PERSON_AND_ORGANIZATION_ROLE ( 'design_supplier' ) ;
#9 = AXIS2_PLACEMENT_3D ( 'NONE', #70, #44, #244 ) ;
#10 = DIRECTION ( 'NONE',  ( -1.000000000000000000, 0.000000000000000000, 0.000000000000000000 ) ) ;
#11 = DATE_TIME_ROLE ( 'creation_date' ) ;
#12 = EDGE_CURVE ( 'NONE', #19, #289, #96, .T. ) ;
#13 = CARTESIAN_POINT ( 'NONE',  ( 0.000000000000000000, 0.000000000000000000, 3.199999999999994404 ) ) ;
#14 = DIRECTION ( 'NONE',  ( -1.000000000000000000, 1.224646799147354686E-16, 0.000000000000000000 ) ) ;
#15 = APPROVAL_DATE_TIME ( #152, #214 ) ;
#16 = AXIS2_PLACEMENT_3D ( 'NONE', #288, #263, #45 ) ;
#17 = PERSON_AND_ORGANIZATION_ROLE ( 'creator' ) ;
#18 = AXIS2_PLACEMENT_3D ( 'NONE', #249, #59, #253 ) ;
#19 = VERTEX_POINT ( 'NONE', #2 ) ;
#20 = PRODUCT_DEFINITION_FORMATION_WITH_SPECIFIED_SOURCE ( 'LIBOVOLNÝ', '', #305, .NOT_KNOWN. ) ;
#21 = ORIENTED_EDGE ( 'NONE', *, *, #217, .T. ) ;
#22 = CIRCLE ( 'NONE', #223, 1.950000000000000178 ) ;
#23 = VERTEX_POINT ( 'NONE', #190 ) ;
#24 = ORIENTED_EDGE ( 'NONE', *, *, #92, .F. ) ;
#25 = DIRECTION ( 'NONE',  ( 0.000000000000000000, 0.000000000000000000, 1.000000000000000000 ) ) ;
#26 = ORIENTED_EDGE ( 'NONE', *, *, #294, .F. ) ;
#27 = CARTESIAN_POINT ( 'NONE',  ( 0.000000000000000000, 0.000000000000000000, 3.199999999999994404 ) ) ;
#28 = CIRCLE ( 'NONE', #229, 0.2000000000000000944 ) ;
#29 = FACE_OUTER_BOUND ( 'NONE', #240, .T. ) ;
#30 = LOCAL_TIME ( 12, 28, 29.00000000000000000, #154 ) ;
#31 = TOROIDAL_SURFACE ( 'NONE', #174, 1.950000000000000178, 0.2000000000000000111 ) ;
#32 = PLANE ( 'NONE',  #18 ) ;
#33 = CARTESIAN_POINT ( 'NONE',  ( 3.500000000000000444, 4.286263797015737088E-16, 3.000000000000000000 ) ) ;
#34 = DIRECTION ( 'NONE',  ( -0.000000000000000000, -0.000000000000000000, -1.000000000000000000 ) ) ;
#35 = CARTESIAN_POINT ( 'NONE',  ( 0.000000000000000000, 0.000000000000000000, 0.000000000000000000 ) ) ;
#36 =( GEOMETRIC_REPRESENTATION_CONTEXT ( 3 ) GLOBAL_UNCERTAINTY_ASSIGNED_CONTEXT ( ( #124 ) ) GLOBAL_UNIT_ASSIGNED_CONTEXT ( ( #236, #155, #233 ) ) REPRESENTATION_CONTEXT ( 'NONE', 'WORKASPACE' ) );
#37 = CARTESIAN_POINT ( 'NONE',  ( 0.000000000000000000, 0.000000000000000000, 128.0000000000000000 ) ) ;
#38 = APPROVAL_ROLE ( '' ) ;
#39 = DATE_AND_TIME ( #210, #30 ) ;
#40 = ORIENTED_EDGE ( 'NONE', *, *, #73, .T. ) ;
#41 = AXIS2_PLACEMENT_3D ( 'NONE', #225, #228, #55 ) ;
#42 = VECTOR ( 'NONE', #234, 1000.000000000000000 ) ;
#43 = ORIENTED_EDGE ( 'NONE', *, *, #92, .T. ) ;
#44 = DIRECTION ( 'NONE',  ( 0.000000000000000000, 0.000000000000000000, 1.000000000000000000 ) ) ;
#45 = DIRECTION ( 'NONE',  ( -1.000000000000000000, 0.000000000000000000, 0.000000000000000000 ) ) ;
#46 = CYLINDRICAL_SURFACE ( 'NONE', #242, 3.500000000000000444 ) ;
#47 = APPROVAL_PERSON_ORGANIZATION ( #207, #262, #38 ) ;
#48 = CARTESIAN_POINT ( 'NONE',  ( 0.000000000000000000, 0.000000000000000000, 3.000000000000000000 ) ) ;
#49 = ORIENTED_EDGE ( 'NONE', *, *, #52, .F. ) ;
#50 = DIRECTION ( 'NONE',  ( -0.000000000000000000, -0.000000000000000000, -1.000000000000000000 ) ) ;
#51 = SECURITY_CLASSIFICATION ( '', '', #183 ) ;
#52 = EDGE_CURVE ( 'NONE', #169, #307, #194, .T. ) ;
#53 = CARTESIAN_POINT ( 'NONE',  ( -1.950000000000000178, 2.388061258337339136E-16, 3.199999999999994404 ) ) ;
#54 = SHAPE_DEFINITION_REPRESENTATION ( #212, #186 ) ;
#55 = DIRECTION ( 'NONE',  ( 1.000000000000000000, 0.000000000000000000, 0.000000000000000000 ) ) ;
#56 = CC_DESIGN_PERSON_AND_ORGANIZATION_ASSIGNMENT ( #105, #202, ( #51 ) ) ;
#57 = DIRECTION ( 'NONE',  ( -1.000000000000000000, 0.000000000000000000, 0.000000000000000000 ) ) ;
#58 = PERSON_AND_ORGANIZATION_ROLE ( 'creator' ) ;
#59 = DIRECTION ( 'NONE',  ( 0.000000000000000000, 0.000000000000000000, 1.000000000000000000 ) ) ;
#60 = VERTEX_POINT ( 'NONE', #118 ) ;
#61 = AXIS2_PLACEMENT_3D ( 'NONE', #114, #247, #165 ) ;
#62 = ORIENTED_EDGE ( 'NONE', *, *, #185, .F. ) ;
#63 = EDGE_CURVE ( 'NONE', #19, #163, #28, .T. ) ;
#64 = ORIENTED_EDGE ( 'NONE', *, *, #217, .F. ) ;
#65 = CC_DESIGN_PERSON_AND_ORGANIZATION_ASSIGNMENT ( #299, #293, ( #305 ) ) ;
#66 = ORIENTED_EDGE ( 'NONE', *, *, #193, .T. ) ;
#67 = ORIENTED_EDGE ( 'NONE', *, *, #287, .T. ) ;
#68 = ORIENTED_EDGE ( 'NONE', *, *, #52, .T. ) ;
#69 = DIRECTION ( 'NONE',  ( 1.000000000000000000, 0.000000000000000000, 0.000000000000000000 ) ) ;
#70 = CARTESIAN_POINT ( 'NONE',  ( 0.000000000000000000, 0.000000000000000000, 0.000000000000000000 ) ) ;
#71 = CARTESIAN_POINT ( 'NONE',  ( 1.750000000000000000, 2.143131898507868297E-16, 128.0000000000000000 ) ) ;
#72 = CYLINDRICAL_SURFACE ( 'NONE', #191, 3.500000000000000444 ) ;
#73 = EDGE_CURVE ( 'NONE', #307, #169, #179, .T. ) ;
#74 = CARTESIAN_POINT ( 'NONE',  ( 3.500000000000000444, 4.286263797015737088E-16, 0.000000000000000000 ) ) ;
#75 = COORDINATED_UNIVERSAL_TIME_OFFSET ( 1, 0, .AHEAD. ) ;
#76 = CC_DESIGN_SECURITY_CLASSIFICATION ( #51, ( #20 ) ) ;
#77 = CIRCLE ( 'NONE', #159, 0.1999999999999998723 ) ;
#78 = DIRECTION ( 'NONE',  ( -1.000000000000000000, 0.000000000000000000, 0.000000000000000000 ) ) ;
#79 = COORDINATED_UNIVERSAL_TIME_OFFSET ( 1, 0, .AHEAD. ) ;
#80 = PLANE ( 'NONE',  #201 ) ;
#81 = APPROVAL_STATUS ( 'not_yet_approved' ) ;
#82 = CARTESIAN_POINT ( 'NONE',  ( 1.950000000000000178, 0.000000000000000000, 2.999999999999997335 ) ) ;
#83 = CALENDAR_DATE ( 2022, 7, 7 ) ;
#84 = TOROIDAL_SURFACE ( 'NONE', #206, 1.950000000000000178, 0.2000000000000000111 ) ;
#85 = AXIS2_PLACEMENT_3D ( 'NONE', #144, #130, #197 ) ;
#86 = EDGE_CURVE ( 'NONE', #243, #163, #22, .T. ) ;
#87 = DIRECTION ( 'NONE',  ( 0.000000000000000000, 0.000000000000000000, 1.000000000000000000 ) ) ;
#88 = CIRCLE ( 'NONE', #184, 1.750000000000000000 ) ;
#89 = ORIENTED_EDGE ( 'NONE', *, *, #266, .T. ) ;
#90 = CC_DESIGN_APPROVAL ( #262, ( #20 ) ) ;
#91 = CIRCLE ( 'NONE', #85, 1.750000000000000000 ) ;
#92 = EDGE_CURVE ( 'NONE', #60, #23, #88, .T. ) ;
#93 = CARTESIAN_POINT ( 'NONE',  ( 1.950000000000000178, 0.000000000000000000, 3.199999999999994404 ) ) ;
#94 = ADVANCED_FACE ( 'NONE', ( #290 ), #84, .F. ) ;
#95 = ORIENTED_EDGE ( 'NONE', *, *, #63, .F. ) ;
#96 = CIRCLE ( 'NONE', #151, 1.750000000000000000 ) ;
#97 = ORIENTED_EDGE ( 'NONE', *, *, #150, .T. ) ;
#98 = DIRECTION ( 'NONE',  ( 1.224646799147353207E-16, 1.000000000000000000, -0.000000000000000000 ) ) ;
#99 = FACE_OUTER_BOUND ( 'NONE', #113, .T. ) ;
#100 = CALENDAR_DATE ( 2022, 7, 7 ) ;
#101 = FACE_BOUND ( 'NONE', #269, .T. ) ;
#102 = PERSON_AND_ORGANIZATION ( #126, #215 ) ;
#103 = FACE_OUTER_BOUND ( 'NONE', #222, .T. ) ;
#104 = DIRECTION ( 'NONE',  ( 1.000000000000000000, 0.000000000000000000, -0.000000000000000000 ) ) ;
#105 = PERSON_AND_ORGANIZATION ( #126, #215 ) ;
#106 = CIRCLE ( 'NONE', #245, 3.500000000000000444 ) ;
#107 = EDGE_LOOP ( 'NONE', ( #97, #135 ) ) ;
#108 = CC_DESIGN_DATE_AND_TIME_ASSIGNMENT ( #182, #252, ( #51 ) ) ;
#109 = DIRECTION ( 'NONE',  ( 1.000000000000000000, 0.000000000000000000, 0.000000000000000000 ) ) ;
#110 = EDGE_LOOP ( 'NONE', ( #120, #166, #3, #211 ) ) ;
#111 = ORIENTED_EDGE ( 'NONE', *, *, #266, .F. ) ;
#112 = CC_DESIGN_PERSON_AND_ORGANIZATION_ASSIGNMENT ( #102, #8, ( #20 ) ) ;
#113 = EDGE_LOOP ( 'NONE', ( #67, #43 ) ) ;
#114 = CARTESIAN_POINT ( 'NONE',  ( 0.000000000000000000, 0.000000000000000000, 0.000000000000000000 ) ) ;
#115 = DIRECTION ( 'NONE',  ( 1.000000000000000000, 0.000000000000000000, 0.000000000000000000 ) ) ;
#116 = CC_DESIGN_APPROVAL ( #209, ( #51 ) ) ;
#117 = EDGE_CURVE ( 'NONE', #60, #19, #264, .T. ) ;
#118 = CARTESIAN_POINT ( 'NONE',  ( 1.750000000000000000, 2.143131898507868297E-16, 128.0000000000000000 ) ) ;
#119 = CC_DESIGN_PERSON_AND_ORGANIZATION_ASSIGNMENT ( #180, #58, ( #268 ) ) ;
#120 = ORIENTED_EDGE ( 'NONE', *, *, #193, .F. ) ;
#121 = DIRECTION ( 'NONE',  ( -0.000000000000000000, -0.000000000000000000, -1.000000000000000000 ) ) ;
#122 = CARTESIAN_POINT ( 'NONE',  ( -1.950000000000000178, 2.388061258337339136E-16, 2.999999999999997335 ) ) ;
#123 = PERSON_AND_ORGANIZATION ( #126, #215 ) ;
#124 = UNCERTAINTY_MEASURE_WITH_UNIT (LENGTH_MEASURE( 1.000000000000000082E-05 ), #236, 'distance_accuracy_value', 'NONE');
#125 = FACE_OUTER_BOUND ( 'NONE', #161, .T. ) ;
#126 = PERSON ( 'NEURÈENÝ', 'NEURÈENÝ', 'NEURÈENÝ', ('NEURÈENÝ'), ('NEURÈENÝ'), ('NEURÈENÝ') ) ;
#127 = DIRECTION ( 'NONE',  ( 1.000000000000000000, 0.000000000000000000, 0.000000000000000000 ) ) ;
#128 = DIRECTION ( 'NONE',  ( 0.000000000000000000, 0.000000000000000000, 1.000000000000000000 ) ) ;
#129 = AXIS2_PLACEMENT_3D ( 'NONE', #37, #198, #292 ) ;
#130 = DIRECTION ( 'NONE',  ( 0.000000000000000000, 0.000000000000000000, 1.000000000000000000 ) ) ;
#131 = PERSON_AND_ORGANIZATION ( #126, #215 ) ;
#132 = ORIENTED_EDGE ( 'NONE', *, *, #86, .T. ) ;
#133 = CC_DESIGN_DATE_AND_TIME_ASSIGNMENT ( #39, #11, ( #268 ) ) ;
#134 = MANIFOLD_SOLID_BREP ( 'Zaoblit1', #162 ) ;
#135 = ORIENTED_EDGE ( 'NONE', *, *, #185, .T. ) ;
#136 = ORIENTED_EDGE ( 'NONE', *, *, #213, .F. ) ;
#137 = DIRECTION ( 'NONE',  ( -0.000000000000000000, -0.000000000000000000, -1.000000000000000000 ) ) ;
#138 = CARTESIAN_POINT ( 'NONE',  ( -3.500000000000000444, 0.000000000000000000, 3.000000000000000000 ) ) ;
#139 = ADVANCED_FACE ( 'NONE', ( #306 ), #187, .T. ) ;
#140 = CARTESIAN_POINT ( 'NONE',  ( 0.000000000000000000, 0.000000000000000000, 3.199999999999994404 ) ) ;
#141 = CARTESIAN_POINT ( 'NONE',  ( 0.000000000000000000, 0.000000000000000000, 128.0000000000000000 ) ) ;
#142 = VERTEX_POINT ( 'NONE', #138 ) ;
#143 = PRODUCT_RELATED_PRODUCT_CATEGORY ( 'detail', '', ( #305 ) ) ;
#144 = CARTESIAN_POINT ( 'NONE',  ( 0.000000000000000000, 0.000000000000000000, 3.199999999999994404 ) ) ;
#145 = APPROVAL_PERSON_ORGANIZATION ( #123, #214, #257 ) ;
#146 = APPROVAL_STATUS ( 'not_yet_approved' ) ;
#147 = AXIS2_PLACEMENT_3D ( 'NONE', #178, #7, #78 ) ;
#148 = FACE_OUTER_BOUND ( 'NONE', #107, .T. ) ;
#149 = LINE ( 'NONE', #200, #42 ) ;
#150 = EDGE_CURVE ( 'NONE', #142, #238, #106, .T. ) ;
#151 = AXIS2_PLACEMENT_3D ( 'NONE', #140, #267, #248 ) ;
#152 = DATE_AND_TIME ( #235, #188 ) ;
#153 = DIRECTION ( 'NONE',  ( 0.000000000000000000, 0.000000000000000000, 1.000000000000000000 ) ) ;
#154 = COORDINATED_UNIVERSAL_TIME_OFFSET ( 1, 0, .AHEAD. ) ;
#155 =( NAMED_UNIT ( * ) PLANE_ANGLE_UNIT ( ) SI_UNIT ( $, .RADIAN. ) );
#156 = MECHANICAL_CONTEXT ( 'NONE', #167, 'mechanical' ) ;
#157 = ORIENTED_EDGE ( 'NONE', *, *, #287, .F. ) ;
#158 = LOCAL_TIME ( 12, 28, 29.00000000000000000, #230 ) ;
#159 = AXIS2_PLACEMENT_3D ( 'NONE', #53, #98, #14 ) ;
#160 = ADVANCED_FACE ( 'NONE', ( #168 ), #46, .T. ) ;
#161 = EDGE_LOOP ( 'NONE', ( #64, #195, #281, #40 ) ) ;
#162 = CLOSED_SHELL ( 'NONE', ( #94, #277, #160, #258, #227, #241, #139, #282, #175 ) ) ;
#163 = VERTEX_POINT ( 'NONE', #82 ) ;
#164 = CC_DESIGN_PERSON_AND_ORGANIZATION_ASSIGNMENT ( #131, #17, ( #20 ) ) ;
#165 = DIRECTION ( 'NONE',  ( 1.000000000000000000, 0.000000000000000000, 0.000000000000000000 ) ) ;
#166 = ORIENTED_EDGE ( 'NONE', *, *, #12, .F. ) ;
#167 = APPLICATION_CONTEXT ( 'configuration controlled 3d designs of mechanical parts and assemblies' ) ;
#168 = FACE_OUTER_BOUND ( 'NONE', #284, .T. ) ;
#169 = VERTEX_POINT ( 'NONE', #74 ) ;
#170 = DIRECTION ( 'NONE',  ( -0.000000000000000000, -0.000000000000000000, -1.000000000000000000 ) ) ;
#171 = CARTESIAN_POINT ( 'NONE',  ( 0.000000000000000000, 0.000000000000000000, 3.000000000000000000 ) ) ;
#172 = DIRECTION ( 'NONE',  ( 1.000000000000000000, 0.000000000000000000, 0.000000000000000000 ) ) ;
#173 = DATE_AND_TIME ( #100, #272 ) ;
#174 = AXIS2_PLACEMENT_3D ( 'NONE', #13, #226, #127 ) ;
#175 = ADVANCED_FACE ( 'NONE', ( #181 ), #31, .F. ) ;
#176 = PLANE ( 'NONE',  #129 ) ;
#177 = PERSON_AND_ORGANIZATION ( #126, #215 ) ;
#178 = CARTESIAN_POINT ( 'NONE',  ( 0.000000000000000000, 0.000000000000000000, 128.0000000000000000 ) ) ;
#179 = CIRCLE ( 'NONE', #9, 3.500000000000000444 ) ;
#180 = PERSON_AND_ORGANIZATION ( #126, #215 ) ;
#181 = FACE_OUTER_BOUND ( 'NONE', #110, .T. ) ;
#182 = DATE_AND_TIME ( #83, #1 ) ;
#183 = SECURITY_CLASSIFICATION_LEVEL ( 'unclassified' ) ;
#184 = AXIS2_PLACEMENT_3D ( 'NONE', #141, #192, #115 ) ;
#185 = EDGE_CURVE ( 'NONE', #238, #142, #189, .T. ) ;
#186 = ADVANCED_BREP_SHAPE_REPRESENTATION ( 'fd5b', ( #134, #260 ), #36 ) ;
#187 = CYLINDRICAL_SURFACE ( 'NONE', #16, 1.750000000000000000 ) ;
#188 = LOCAL_TIME ( 12, 28, 29.00000000000000000, #75 ) ;
#189 = CIRCLE ( 'NONE', #41, 3.500000000000000444 ) ;
#190 = CARTESIAN_POINT ( 'NONE',  ( -1.750000000000000000, 0.000000000000000000, 128.0000000000000000 ) ) ;
#191 = AXIS2_PLACEMENT_3D ( 'NONE', #171, #50, #57 ) ;
#192 = DIRECTION ( 'NONE',  ( 0.000000000000000000, 0.000000000000000000, 1.000000000000000000 ) ) ;
#193 = EDGE_CURVE ( 'NONE', #289, #243, #77, .T. ) ;
#194 = CIRCLE ( 'NONE', #61, 3.500000000000000444 ) ;
#195 = ORIENTED_EDGE ( 'NONE', *, *, #150, .F. ) ;
#196 = ORIENTED_EDGE ( 'NONE', *, *, #12, .T. ) ;
#197 = DIRECTION ( 'NONE',  ( 1.000000000000000000, 0.000000000000000000, 0.000000000000000000 ) ) ;
#198 = DIRECTION ( 'NONE',  ( 0.000000000000000000, 0.000000000000000000, 1.000000000000000000 ) ) ;
#199 = APPLICATION_PROTOCOL_DEFINITION ( 'international standard', 'config_control_design', 1994, #167 ) ;
#200 = CARTESIAN_POINT ( 'NONE',  ( -1.750000000000000000, 0.000000000000000000, 128.0000000000000000 ) ) ;
#201 = AXIS2_PLACEMENT_3D ( 'NONE', #276, #291, #104 ) ;
#202 = PERSON_AND_ORGANIZATION_ROLE ( 'classification_officer' ) ;
#203 = CARTESIAN_POINT ( 'NONE',  ( 0.000000000000000000, 0.000000000000000000, 128.0000000000000000 ) ) ;
#204 = APPLICATION_PROTOCOL_DEFINITION ( 'international standard', 'config_control_design', 1994, #303 ) ;
#205 = DIRECTION ( 'NONE',  ( -0.000000000000000000, -0.000000000000000000, -1.000000000000000000 ) ) ;
#206 = AXIS2_PLACEMENT_3D ( 'NONE', #27, #87, #218 ) ;
#207 = PERSON_AND_ORGANIZATION ( #126, #215 ) ;
#208 = ORIENTED_EDGE ( 'NONE', *, *, #117, .T. ) ;
#209 = APPROVAL ( #146, 'NEURÈENÝ' ) ;
#210 = CALENDAR_DATE ( 2022, 7, 7 ) ;
#211 = ORIENTED_EDGE ( 'NONE', *, *, #86, .F. ) ;
#212 = PRODUCT_DEFINITION_SHAPE ( 'NONE', 'NONE',  #268 ) ;
#213 = EDGE_CURVE ( 'NONE', #289, #19, #91, .T. ) ;
#214 = APPROVAL ( #81, 'NEURÈENÝ' ) ;
#215 = ORGANIZATION ( 'NEURÈENÝ', 'NEURÈENÝ', '' ) ;
#216 = DIRECTION ( 'NONE',  ( 1.000000000000000000, 0.000000000000000000, 0.000000000000000000 ) ) ;
#217 = EDGE_CURVE ( 'NONE', #238, #169, #298, .T. ) ;
#218 = DIRECTION ( 'NONE',  ( 1.000000000000000000, 0.000000000000000000, 0.000000000000000000 ) ) ;
#219 = VECTOR ( 'NONE', #231, 1000.000000000000000 ) ;
#220 = ORIENTED_EDGE ( 'NONE', *, *, #213, .T. ) ;
#221 = APPROVAL_PERSON_ORGANIZATION ( #177, #209, #279 ) ;
#222 = EDGE_LOOP ( 'NONE', ( #24, #208, #196, #283 ) ) ;
#223 = AXIS2_PLACEMENT_3D ( 'NONE', #48, #137, #216 ) ;
#224 = DIRECTION ( 'NONE',  ( 0.000000000000000000, -1.000000000000000000, 0.000000000000000000 ) ) ;
#225 = CARTESIAN_POINT ( 'NONE',  ( 0.000000000000000000, 0.000000000000000000, 3.000000000000000000 ) ) ;
#226 = DIRECTION ( 'NONE',  ( 0.000000000000000000, 0.000000000000000000, 1.000000000000000000 ) ) ;
#227 = ADVANCED_FACE ( 'NONE', ( #101, #148 ), #32, .T. ) ;
#228 = DIRECTION ( 'NONE',  ( 0.000000000000000000, 0.000000000000000000, 1.000000000000000000 ) ) ;
#229 = AXIS2_PLACEMENT_3D ( 'NONE', #93, #224, #286 ) ;
#230 = COORDINATED_UNIVERSAL_TIME_OFFSET ( 1, 0, .AHEAD. ) ;
#231 = DIRECTION ( 'NONE',  ( -0.000000000000000000, -0.000000000000000000, -1.000000000000000000 ) ) ;
#232 = VECTOR ( 'NONE', #34, 1000.000000000000000 ) ;
#233 =( NAMED_UNIT ( * ) SI_UNIT ( $, .STERADIAN. ) SOLID_ANGLE_UNIT ( ) );
#234 = DIRECTION ( 'NONE',  ( -0.000000000000000000, -0.000000000000000000, -1.000000000000000000 ) ) ;
#235 = CALENDAR_DATE ( 2022, 7, 7 ) ;
#236 =( LENGTH_UNIT ( ) NAMED_UNIT ( * ) SI_UNIT ( .MILLI., .METRE. ) );
#237 = CC_DESIGN_APPROVAL ( #214, ( #268 ) ) ;
#238 = VERTEX_POINT ( 'NONE', #33 ) ;
#239 = EDGE_CURVE ( 'NONE', #23, #289, #149, .T. ) ;
#240 = EDGE_LOOP ( 'NONE', ( #259, #49 ) ) ;
#241 = ADVANCED_FACE ( 'NONE', ( #29 ), #80, .F. ) ;
#242 = AXIS2_PLACEMENT_3D ( 'NONE', #6, #121, #10 ) ;
#243 = VERTEX_POINT ( 'NONE', #122 ) ;
#244 = DIRECTION ( 'NONE',  ( 1.000000000000000000, 0.000000000000000000, 0.000000000000000000 ) ) ;
#245 = AXIS2_PLACEMENT_3D ( 'NONE', #246, #25, #69 ) ;
#246 = CARTESIAN_POINT ( 'NONE',  ( 0.000000000000000000, 0.000000000000000000, 3.000000000000000000 ) ) ;
#247 = DIRECTION ( 'NONE',  ( 0.000000000000000000, 0.000000000000000000, 1.000000000000000000 ) ) ;
#248 = DIRECTION ( 'NONE',  ( 1.000000000000000000, 0.000000000000000000, 0.000000000000000000 ) ) ;
#249 = CARTESIAN_POINT ( 'NONE',  ( 0.000000000000000000, 0.000000000000000000, 3.000000000000000000 ) ) ;
#250 = CIRCLE ( 'NONE', #285, 1.750000000000000000 ) ;
#251 = DIRECTION ( 'NONE',  ( 1.000000000000000000, 0.000000000000000000, 0.000000000000000000 ) ) ;
#252 = DATE_TIME_ROLE ( 'classification_date' ) ;
#253 = DIRECTION ( 'NONE',  ( 1.000000000000000000, 0.000000000000000000, -0.000000000000000000 ) ) ;
#254 = CARTESIAN_POINT ( 'NONE',  ( -3.500000000000000444, 0.000000000000000000, 3.000000000000000000 ) ) ;
#255 = CARTESIAN_POINT ( 'NONE',  ( -3.500000000000000444, 0.000000000000000000, 0.000000000000000000 ) ) ;
#256 = APPROVAL_STATUS ( 'not_yet_approved' ) ;
#257 = APPROVAL_ROLE ( '' ) ;
#258 = ADVANCED_FACE ( 'NONE', ( #125 ), #72, .T. ) ;
#259 = ORIENTED_EDGE ( 'NONE', *, *, #73, .F. ) ;
#260 = AXIS2_PLACEMENT_3D ( 'NONE', #35, #128, #109 ) ;
#261 = ORIENTED_EDGE ( 'NONE', *, *, #117, .F. ) ;
#262 = APPROVAL ( #256, 'NEURÈENÝ' ) ;
#263 = DIRECTION ( 'NONE',  ( -0.000000000000000000, -0.000000000000000000, -1.000000000000000000 ) ) ;
#264 = LINE ( 'NONE', #71, #265 ) ;
#265 = VECTOR ( 'NONE', #170, 1000.000000000000000 ) ;
#266 = EDGE_CURVE ( 'NONE', #163, #243, #273, .T. ) ;
#267 = DIRECTION ( 'NONE',  ( 0.000000000000000000, 0.000000000000000000, 1.000000000000000000 ) ) ;
#268 = PRODUCT_DEFINITION ( 'NEZNÁMÝ', '', #20, #5 ) ;
#269 = EDGE_LOOP ( 'NONE', ( #89, #132 ) ) ;
#270 = EDGE_LOOP ( 'NONE', ( #136, #66, #111, #95 ) ) ;
#271 = CYLINDRICAL_SURFACE ( 'NONE', #147, 1.750000000000000000 ) ;
#272 = LOCAL_TIME ( 12, 28, 29.00000000000000000, #79 ) ;
#273 = CIRCLE ( 'NONE', #295, 1.950000000000000178 ) ;
#274 = APPROVAL_DATE_TIME ( #173, #209 ) ;
#275 = LINE ( 'NONE', #254, #232 ) ;
#276 = CARTESIAN_POINT ( 'NONE',  ( 0.000000000000000000, 0.000000000000000000, 0.000000000000000000 ) ) ;
#277 = ADVANCED_FACE ( 'NONE', ( #103 ), #271, .T. ) ;
#278 = CARTESIAN_POINT ( 'NONE',  ( 3.500000000000000444, 4.286263797015737088E-16, 3.000000000000000000 ) ) ;
#279 = APPROVAL_ROLE ( '' ) ;
#280 = APPROVAL_DATE_TIME ( #302, #262 ) ;
#281 = ORIENTED_EDGE ( 'NONE', *, *, #294, .T. ) ;
#282 = ADVANCED_FACE ( 'NONE', ( #99 ), #176, .T. ) ;
#283 = ORIENTED_EDGE ( 'NONE', *, *, #239, .F. ) ;
#284 = EDGE_LOOP ( 'NONE', ( #62, #21, #68, #26 ) ) ;
#285 = AXIS2_PLACEMENT_3D ( 'NONE', #203, #153, #172 ) ;
#286 = DIRECTION ( 'NONE',  ( 0.000000000000000000, 0.000000000000000000, -1.000000000000000000 ) ) ;
#287 = EDGE_CURVE ( 'NONE', #23, #60, #250, .T. ) ;
#288 = CARTESIAN_POINT ( 'NONE',  ( 0.000000000000000000, 0.000000000000000000, 128.0000000000000000 ) ) ;
#289 = VERTEX_POINT ( 'NONE', #300 ) ;
#290 = FACE_OUTER_BOUND ( 'NONE', #270, .T. ) ;
#291 = DIRECTION ( 'NONE',  ( 0.000000000000000000, 0.000000000000000000, 1.000000000000000000 ) ) ;
#292 = DIRECTION ( 'NONE',  ( 1.000000000000000000, 0.000000000000000000, -0.000000000000000000 ) ) ;
#293 = PERSON_AND_ORGANIZATION_ROLE ( 'design_owner' ) ;
#294 = EDGE_CURVE ( 'NONE', #142, #307, #275, .T. ) ;
#295 = AXIS2_PLACEMENT_3D ( 'NONE', #296, #205, #251 ) ;
#296 = CARTESIAN_POINT ( 'NONE',  ( 0.000000000000000000, 0.000000000000000000, 3.000000000000000000 ) ) ;
#297 = CALENDAR_DATE ( 2022, 7, 7 ) ;
#298 = LINE ( 'NONE', #278, #219 ) ;
#299 = PERSON_AND_ORGANIZATION ( #126, #215 ) ;
#300 = CARTESIAN_POINT ( 'NONE',  ( -1.750000000000000000, 0.000000000000000000, 3.199999999999994404 ) ) ;
#301 = COORDINATED_UNIVERSAL_TIME_OFFSET ( 1, 0, .AHEAD. ) ;
#302 = DATE_AND_TIME ( #297, #158 ) ;
#303 = APPLICATION_CONTEXT ( 'configuration controlled 3d designs of mechanical parts and assemblies' ) ;
#304 = EDGE_LOOP ( 'NONE', ( #261, #157, #4, #220 ) ) ;
#305 = PRODUCT ( 'fd5b', 'fd5b', '', ( #156 ) ) ;
#306 = FACE_OUTER_BOUND ( 'NONE', #304, .T. ) ;
#307 = VERTEX_POINT ( 'NONE', #255 ) ;
ENDSEC;
END-ISO-10303-21;
