ISO-10303-21;
HEADER;
FILE_DESCRIPTION (( 'STEP AP203' ),
    '1' );
FILE_NAME ('a752.STEP',
    '2022-07-07T10:41:22',
    ( '' ),
    ( '' ),
    'SwSTEP 2.0',
    'SolidWorks 2019',
    '' );
FILE_SCHEMA (( 'CONFIG_CONTROL_DESIGN' ));
ENDSEC;

DATA;
#1 = EDGE_CURVE ( 'NONE', #73, #57, #250, .T. ) ;
#2 = CALENDAR_DATE ( 2022, 7, 7 ) ;
#3 = CC_DESIGN_PERSON_AND_ORGANIZATION_ASSIGNMENT ( #278, #230, ( #204 ) ) ;
#4 = DIRECTION ( 'NONE',  ( 0.000000000000000000, 0.000000000000000000, 1.000000000000000000 ) ) ;
#5 = EDGE_LOOP ( 'NONE', ( #141, #213 ) ) ;
#6 = ORIENTED_EDGE ( 'NONE', *, *, #154, .F. ) ;
#7 = APPROVAL_DATE_TIME ( #235, #66 ) ;
#8 = EDGE_LOOP ( 'NONE', ( #27, #270 ) ) ;
#9 = ORIENTED_EDGE ( 'NONE', *, *, #119, .F. ) ;
#10 = CALENDAR_DATE ( 2022, 7, 7 ) ;
#11 = EDGE_LOOP ( 'NONE', ( #291, #6, #210, #121 ) ) ;
#12 = DIRECTION ( 'NONE',  ( -1.000000000000000000, 0.000000000000000000, 0.000000000000000000 ) ) ;
#13 =( GEOMETRIC_REPRESENTATION_CONTEXT ( 3 ) GLOBAL_UNCERTAINTY_ASSIGNED_CONTEXT ( ( #124 ) ) GLOBAL_UNIT_ASSIGNED_CONTEXT ( ( #65, #158, #128 ) ) REPRESENTATION_CONTEXT ( 'NONE', 'WORKASPACE' ) );
#14 = CIRCLE ( 'NONE', #70, 1.250000000000000000 ) ;
#15 = CYLINDRICAL_SURFACE ( 'NONE', #81, 0.5500000000000000444 ) ;
#16 = DIRECTION ( 'NONE',  ( 0.000000000000000000, 0.000000000000000000, 1.000000000000000000 ) ) ;
#17 = EDGE_CURVE ( 'NONE', #57, #123, #307, .T. ) ;
#18 = PRODUCT_DEFINITION_FORMATION_WITH_SPECIFIED_SOURCE ( 'LIBOVOLNÝ', '', #204, .NOT_KNOWN. ) ;
#19 = DIRECTION ( 'NONE',  ( 1.000000000000000000, 0.000000000000000000, 0.000000000000000000 ) ) ;
#20 = FACE_OUTER_BOUND ( 'NONE', #53, .T. ) ;
#21 = LINE ( 'NONE', #305, #226 ) ;
#22 = DIRECTION ( 'NONE',  ( 1.000000000000000000, 0.000000000000000000, 0.000000000000000000 ) ) ;
#23 = EDGE_CURVE ( 'NONE', #214, #62, #185, .T. ) ;
#24 = ADVANCED_FACE ( 'NONE', ( #248 ), #287, .T. ) ;
#25 = AXIS2_PLACEMENT_3D ( 'NONE', #96, #284, #22 ) ;
#26 = COORDINATED_UNIVERSAL_TIME_OFFSET ( 1, 0, .AHEAD. ) ;
#27 = ORIENTED_EDGE ( 'NONE', *, *, #249, .T. ) ;
#28 = LINE ( 'NONE', #110, #258 ) ;
#29 = ORIENTED_EDGE ( 'NONE', *, *, #89, .T. ) ;
#30 = CC_DESIGN_PERSON_AND_ORGANIZATION_ASSIGNMENT ( #238, #31, ( #178 ) ) ;
#31 = PERSON_AND_ORGANIZATION_ROLE ( 'creator' ) ;
#32 = LINE ( 'NONE', #115, #41 ) ;
#33 = EDGE_LOOP ( 'NONE', ( #9, #56, #262, #197 ) ) ;
#34 = PERSON_AND_ORGANIZATION_ROLE ( 'classification_officer' ) ;
#35 = EDGE_LOOP ( 'NONE', ( #268, #168 ) ) ;
#36 = CARTESIAN_POINT ( 'NONE',  ( 0.000000000000000000, 0.000000000000000000, 101.2000000000000171 ) ) ;
#37 = ADVANCED_FACE ( 'NONE', ( #112 ), #49, .T. ) ;
#38 = CIRCLE ( 'NONE', #76, 0.5500000000000000444 ) ;
#39 = AXIS2_PLACEMENT_3D ( 'NONE', #209, #283, #140 ) ;
#40 = CARTESIAN_POINT ( 'NONE',  ( 0.000000000000000000, 0.000000000000000000, 0.000000000000000000 ) ) ;
#41 = VECTOR ( 'NONE', #286, 1000.000000000000000 ) ;
#42 = FACE_OUTER_BOUND ( 'NONE', #35, .T. ) ;
#43 = SECURITY_CLASSIFICATION ( '', '', #55 ) ;
#44 = DIRECTION ( 'NONE',  ( -0.000000000000000000, -0.000000000000000000, -1.000000000000000000 ) ) ;
#45 = LOCAL_TIME ( 12, 41, 22.00000000000000000, #215 ) ;
#46 = FACE_OUTER_BOUND ( 'NONE', #11, .T. ) ;
#47 = COORDINATED_UNIVERSAL_TIME_OFFSET ( 1, 0, .AHEAD. ) ;
#48 = DIRECTION ( 'NONE',  ( -0.000000000000000000, -0.000000000000000000, -1.000000000000000000 ) ) ;
#49 = PLANE ( 'NONE',  #126 ) ;
#50 = TOROIDAL_SURFACE ( 'NONE', #222, 0.7500000000000000000, 0.2000000000000000111 ) ;
#51 = APPROVAL_ROLE ( '' ) ;
#52 = DIRECTION ( 'NONE',  ( 1.000000000000000000, 0.000000000000000000, 0.000000000000000000 ) ) ;
#53 = EDGE_LOOP ( 'NONE', ( #174, #29, #95, #189 ) ) ;
#54 = ORIENTED_EDGE ( 'NONE', *, *, #180, .T. ) ;
#55 = SECURITY_CLASSIFICATION_LEVEL ( 'unclassified' ) ;
#56 = ORIENTED_EDGE ( 'NONE', *, *, #101, .T. ) ;
#57 = VERTEX_POINT ( 'NONE', #212 ) ;
#58 = EDGE_CURVE ( 'NONE', #269, #62, #21, .T. ) ;
#59 = ORIENTED_EDGE ( 'NONE', *, *, #187, .F. ) ;
#60 = AXIS2_PLACEMENT_3D ( 'NONE', #36, #195, #12 ) ;
#61 = CC_DESIGN_APPROVAL ( #192, ( #178 ) ) ;
#62 = VERTEX_POINT ( 'NONE', #281 ) ;
#63 = DIRECTION ( 'NONE',  ( -0.000000000000000000, -0.000000000000000000, -1.000000000000000000 ) ) ;
#64 = CARTESIAN_POINT ( 'NONE',  ( 0.000000000000000000, 0.000000000000000000, 0.000000000000000000 ) ) ;
#65 =( LENGTH_UNIT ( ) NAMED_UNIT ( * ) SI_UNIT ( .MILLI., .METRE. ) );
#66 = APPROVAL ( #117, 'NEURÈENÝ' ) ;
#67 = CARTESIAN_POINT ( 'NONE',  ( 0.000000000000000000, 0.000000000000000000, 0.000000000000000000 ) ) ;
#68 = DIRECTION ( 'NONE',  ( 0.000000000000000000, 0.000000000000000000, -1.000000000000000000 ) ) ;
#69 = CALENDAR_DATE ( 2022, 7, 7 ) ;
#70 = AXIS2_PLACEMENT_3D ( 'NONE', #67, #135, #240 ) ;
#71 = ADVANCED_FACE ( 'NONE', ( #164 ), #50, .F. ) ;
#72 = CARTESIAN_POINT ( 'NONE',  ( 0.7500000000000000000, 0.000000000000000000, 1.199999999999999289 ) ) ;
#73 = VERTEX_POINT ( 'NONE', #94 ) ;
#74 = DIRECTION ( 'NONE',  ( 1.000000000000000000, 0.000000000000000000, 0.000000000000000000 ) ) ;
#75 = DIRECTION ( 'NONE',  ( 0.000000000000000000, 0.000000000000000000, 1.000000000000000000 ) ) ;
#76 = AXIS2_PLACEMENT_3D ( 'NONE', #261, #279, #193 ) ;
#77 = APPROVAL_DATE_TIME ( #260, #163 ) ;
#78 = ORIENTED_EDGE ( 'NONE', *, *, #160, .F. ) ;
#79 = PERSON_AND_ORGANIZATION ( #156, #199 ) ;
#80 = LOCAL_TIME ( 12, 41, 22.00000000000000000, #288 ) ;
#81 = AXIS2_PLACEMENT_3D ( 'NONE', #276, #104, #301 ) ;
#82 = VERTEX_POINT ( 'NONE', #88 ) ;
#83 = AXIS2_PLACEMENT_3D ( 'NONE', #132, #102, #86 ) ;
#84 = PLANE ( 'NONE',  #83 ) ;
#85 = DIRECTION ( 'NONE',  ( 1.000000000000000000, 0.000000000000000000, 0.000000000000000000 ) ) ;
#86 = DIRECTION ( 'NONE',  ( 1.000000000000000000, 0.000000000000000000, -0.000000000000000000 ) ) ;
#87 = CARTESIAN_POINT ( 'NONE',  ( 0.000000000000000000, 0.000000000000000000, 1.399999999999998579 ) ) ;
#88 = CARTESIAN_POINT ( 'NONE',  ( -0.7500000000000000000, 9.184850993605149670E-17, 1.199999999999999289 ) ) ;
#89 = EDGE_CURVE ( 'NONE', #73, #225, #32, .T. ) ;
#90 = COORDINATED_UNIVERSAL_TIME_OFFSET ( 1, 0, .AHEAD. ) ;
#91 = CARTESIAN_POINT ( 'NONE',  ( 0.000000000000000000, 0.000000000000000000, 1.199999999999999956 ) ) ;
#92 = CARTESIAN_POINT ( 'NONE',  ( -1.250000000000000000, 0.000000000000000000, 1.199999999999999956 ) ) ;
#93 = CC_DESIGN_APPROVAL ( #66, ( #43 ) ) ;
#94 = CARTESIAN_POINT ( 'NONE',  ( 1.250000000000000000, 1.530808498934191571E-16, 1.199999999999999956 ) ) ;
#95 = ORIENTED_EDGE ( 'NONE', *, *, #198, .T. ) ;
#96 = CARTESIAN_POINT ( 'NONE',  ( 0.000000000000000000, 0.000000000000000000, 1.199999999999999956 ) ) ;
#97 = DATE_AND_TIME ( #10, #80 ) ;
#98 = ORIENTED_EDGE ( 'NONE', *, *, #23, .F. ) ;
#99 = AXIS2_PLACEMENT_3D ( 'NONE', #182, #201, #300 ) ;
#100 = ADVANCED_BREP_SHAPE_REPRESENTATION ( 'a752', ( #217, #253 ), #13 ) ;
#101 = EDGE_CURVE ( 'NONE', #62, #82, #208, .T. ) ;
#102 = DIRECTION ( 'NONE',  ( 0.000000000000000000, 0.000000000000000000, 1.000000000000000000 ) ) ;
#103 = FACE_OUTER_BOUND ( 'NONE', #169, .T. ) ;
#104 = DIRECTION ( 'NONE',  ( -0.000000000000000000, -0.000000000000000000, -1.000000000000000000 ) ) ;
#105 = AXIS2_PLACEMENT_3D ( 'NONE', #143, #63, #273 ) ;
#106 = DIRECTION ( 'NONE',  ( 1.000000000000000000, 0.000000000000000000, 0.000000000000000000 ) ) ;
#107 = CIRCLE ( 'NONE', #153, 0.2000000000000000944 ) ;
#108 = DIRECTION ( 'NONE',  ( -1.000000000000000000, 1.224646799147353454E-16, 0.000000000000000000 ) ) ;
#109 = AXIS2_PLACEMENT_3D ( 'NONE', #162, #257, #234 ) ;
#110 = CARTESIAN_POINT ( 'NONE',  ( 0.5500000000000000444, 6.735557395310442516E-17, 101.2000000000000171 ) ) ;
#111 = CARTESIAN_POINT ( 'NONE',  ( 0.7500000000000000000, 0.000000000000000000, 1.399999999999998579 ) ) ;
#112 = FACE_OUTER_BOUND ( 'NONE', #5, .T. ) ;
#113 = CC_DESIGN_PERSON_AND_ORGANIZATION_ASSIGNMENT ( #114, #173, ( #18 ) ) ;
#114 = PERSON_AND_ORGANIZATION ( #156, #199 ) ;
#115 = CARTESIAN_POINT ( 'NONE',  ( 1.250000000000000000, 1.530808498934191571E-16, 1.199999999999999956 ) ) ;
#116 = ORIENTED_EDGE ( 'NONE', *, *, #180, .F. ) ;
#117 = APPROVAL_STATUS ( 'not_yet_approved' ) ;
#118 = AXIS2_PLACEMENT_3D ( 'NONE', #91, #48, #52 ) ;
#119 = EDGE_CURVE ( 'NONE', #62, #214, #38, .T. ) ;
#120 = CARTESIAN_POINT ( 'NONE',  ( -1.250000000000000000, 0.000000000000000000, 0.000000000000000000 ) ) ;
#121 = ORIENTED_EDGE ( 'NONE', *, *, #160, .T. ) ;
#122 = CALENDAR_DATE ( 2022, 7, 7 ) ;
#123 = VERTEX_POINT ( 'NONE', #120 ) ;
#124 = UNCERTAINTY_MEASURE_WITH_UNIT (LENGTH_MEASURE( 1.000000000000000082E-05 ), #65, 'distance_accuracy_value', 'NONE');
#125 = ORIENTED_EDGE ( 'NONE', *, *, #23, .T. ) ;
#126 = AXIS2_PLACEMENT_3D ( 'NONE', #241, #75, #266 ) ;
#127 = CIRCLE ( 'NONE', #176, 1.250000000000000000 ) ;
#128 =( NAMED_UNIT ( * ) SI_UNIT ( $, .STERADIAN. ) SOLID_ANGLE_UNIT ( ) );
#129 = EDGE_CURVE ( 'NONE', #214, #167, #107, .T. ) ;
#130 = EDGE_CURVE ( 'NONE', #269, #246, #161, .T. ) ;
#131 = FACE_BOUND ( 'NONE', #8, .T. ) ;
#132 = CARTESIAN_POINT ( 'NONE',  ( 0.000000000000000000, 0.000000000000000000, 1.199999999999999956 ) ) ;
#133 = VECTOR ( 'NONE', #150, 1000.000000000000000 ) ;
#134 = CARTESIAN_POINT ( 'NONE',  ( -0.7500000000000000000, 9.184850993605149670E-17, 1.399999999999998579 ) ) ;
#135 = DIRECTION ( 'NONE',  ( 0.000000000000000000, 0.000000000000000000, 1.000000000000000000 ) ) ;
#136 = CIRCLE ( 'NONE', #109, 0.5500000000000000444 ) ;
#137 = SHAPE_DEFINITION_REPRESENTATION ( #302, #100 ) ;
#138 = CARTESIAN_POINT ( 'NONE',  ( 0.000000000000000000, 0.000000000000000000, 1.199999999999999956 ) ) ;
#139 = DATE_TIME_ROLE ( 'classification_date' ) ;
#140 = DIRECTION ( 'NONE',  ( 1.000000000000000000, 0.000000000000000000, 0.000000000000000000 ) ) ;
#141 = ORIENTED_EDGE ( 'NONE', *, *, #130, .T. ) ;
#142 = APPROVAL_STATUS ( 'not_yet_approved' ) ;
#143 = CARTESIAN_POINT ( 'NONE',  ( 0.000000000000000000, 0.000000000000000000, 1.199999999999999956 ) ) ;
#144 = ORIENTED_EDGE ( 'NONE', *, *, #58, .F. ) ;
#145 = APPLICATION_CONTEXT ( 'configuration controlled 3d designs of mechanical parts and assemblies' ) ;
#146 = CC_DESIGN_PERSON_AND_ORGANIZATION_ASSIGNMENT ( #79, #245, ( #18 ) ) ;
#147 = PERSON_AND_ORGANIZATION ( #156, #199 ) ;
#148 = CIRCLE ( 'NONE', #99, 0.7500000000000000000 ) ;
#149 = ORIENTED_EDGE ( 'NONE', *, *, #129, .T. ) ;
#150 = DIRECTION ( 'NONE',  ( -0.000000000000000000, -0.000000000000000000, -1.000000000000000000 ) ) ;
#151 = AXIS2_PLACEMENT_3D ( 'NONE', #194, #289, #221 ) ;
#152 = CC_DESIGN_PERSON_AND_ORGANIZATION_ASSIGNMENT ( #285, #34, ( #43 ) ) ;
#153 = AXIS2_PLACEMENT_3D ( 'NONE', #111, #205, #68 ) ;
#154 = EDGE_CURVE ( 'NONE', #57, #73, #303, .T. ) ;
#155 = FACE_OUTER_BOUND ( 'NONE', #220, .T. ) ;
#156 = PERSON ( 'NEURÈENÝ', 'NEURÈENÝ', 'NEURÈENÝ', ('NEURÈENÝ'), ('NEURÈENÝ'), ('NEURÈENÝ') ) ;
#157 = FACE_OUTER_BOUND ( 'NONE', #263, .T. ) ;
#158 =( NAMED_UNIT ( * ) PLANE_ANGLE_UNIT ( ) SI_UNIT ( $, .RADIAN. ) );
#159 = CC_DESIGN_APPROVAL ( #163, ( #18 ) ) ;
#160 = EDGE_CURVE ( 'NONE', #123, #225, #127, .T. ) ;
#161 = CIRCLE ( 'NONE', #39, 0.5500000000000000444 ) ;
#162 = CARTESIAN_POINT ( 'NONE',  ( 0.000000000000000000, 0.000000000000000000, 101.2000000000000171 ) ) ;
#163 = APPROVAL ( #191, 'NEURÈENÝ' ) ;
#164 = FACE_OUTER_BOUND ( 'NONE', #33, .T. ) ;
#165 = DATE_AND_TIME ( #122, #229 ) ;
#166 = CYLINDRICAL_SURFACE ( 'NONE', #200, 1.250000000000000000 ) ;
#167 = VERTEX_POINT ( 'NONE', #72 ) ;
#168 = ORIENTED_EDGE ( 'NONE', *, *, #1, .T. ) ;
#169 = EDGE_LOOP ( 'NONE', ( #177, #98, #149, #59 ) ) ;
#170 = AXIS2_PLACEMENT_3D ( 'NONE', #134, #186, #108 ) ;
#171 = CARTESIAN_POINT ( 'NONE',  ( 0.5500000000000000444, 6.735557395310442516E-17, 1.399999999999998579 ) ) ;
#172 = EDGE_LOOP ( 'NONE', ( #251, #54, #125, #144 ) ) ;
#173 = PERSON_AND_ORGANIZATION_ROLE ( 'design_supplier' ) ;
#174 = ORIENTED_EDGE ( 'NONE', *, *, #1, .F. ) ;
#175 = ORIENTED_EDGE ( 'NONE', *, *, #130, .F. ) ;
#176 = AXIS2_PLACEMENT_3D ( 'NONE', #232, #306, #19 ) ;
#177 = ORIENTED_EDGE ( 'NONE', *, *, #101, .F. ) ;
#178 = PRODUCT_DEFINITION ( 'NEZNÁMÝ', '', #18, #293 ) ;
#179 = ADVANCED_FACE ( 'NONE', ( #46 ), #166, .T. ) ;
#180 = EDGE_CURVE ( 'NONE', #246, #214, #28, .T. ) ;
#181 = DIRECTION ( 'NONE',  ( 1.000000000000000000, 0.000000000000000000, -0.000000000000000000 ) ) ;
#182 = CARTESIAN_POINT ( 'NONE',  ( 0.000000000000000000, 0.000000000000000000, 1.199999999999999956 ) ) ;
#183 = APPROVAL_PERSON_ORGANIZATION ( #196, #66, #207 ) ;
#184 = CARTESIAN_POINT ( 'NONE',  ( 0.000000000000000000, 0.000000000000000000, 1.199999999999999956 ) ) ;
#185 = CIRCLE ( 'NONE', #151, 0.5500000000000000444 ) ;
#186 = DIRECTION ( 'NONE',  ( 1.224646799147353207E-16, 1.000000000000000000, -0.000000000000000000 ) ) ;
#187 = EDGE_CURVE ( 'NONE', #82, #167, #275, .T. ) ;
#188 = DIRECTION ( 'NONE',  ( 0.000000000000000000, 0.000000000000000000, 1.000000000000000000 ) ) ;
#189 = ORIENTED_EDGE ( 'NONE', *, *, #17, .F. ) ;
#190 = LOCAL_TIME ( 12, 41, 22.00000000000000000, #26 ) ;
#191 = APPROVAL_STATUS ( 'not_yet_approved' ) ;
#192 = APPROVAL ( #142, 'NEURÈENÝ' ) ;
#193 = DIRECTION ( 'NONE',  ( 1.000000000000000000, 0.000000000000000000, 0.000000000000000000 ) ) ;
#194 = CARTESIAN_POINT ( 'NONE',  ( 0.000000000000000000, 0.000000000000000000, 1.399999999999998579 ) ) ;
#195 = DIRECTION ( 'NONE',  ( -0.000000000000000000, -0.000000000000000000, -1.000000000000000000 ) ) ;
#196 = PERSON_AND_ORGANIZATION ( #156, #199 ) ;
#197 = ORIENTED_EDGE ( 'NONE', *, *, #129, .F. ) ;
#198 = EDGE_CURVE ( 'NONE', #225, #123, #14, .T. ) ;
#199 = ORGANIZATION ( 'NEURÈENÝ', 'NEURÈENÝ', '' ) ;
#200 = AXIS2_PLACEMENT_3D ( 'NONE', #138, #44, #236 ) ;
#201 = DIRECTION ( 'NONE',  ( -0.000000000000000000, -0.000000000000000000, -1.000000000000000000 ) ) ;
#202 = DIRECTION ( 'NONE',  ( 0.000000000000000000, 0.000000000000000000, 1.000000000000000000 ) ) ;
#203 = EDGE_CURVE ( 'NONE', #246, #269, #136, .T. ) ;
#204 = PRODUCT ( 'a752', 'a752', '', ( #298 ) ) ;
#205 = DIRECTION ( 'NONE',  ( 0.000000000000000000, -1.000000000000000000, 0.000000000000000000 ) ) ;
#206 = APPROVAL_PERSON_ORGANIZATION ( #147, #192, #219 ) ;
#207 = APPROVAL_ROLE ( '' ) ;
#208 = CIRCLE ( 'NONE', #170, 0.1999999999999999833 ) ;
#209 = CARTESIAN_POINT ( 'NONE',  ( 0.000000000000000000, 0.000000000000000000, 101.2000000000000171 ) ) ;
#210 = ORIENTED_EDGE ( 'NONE', *, *, #17, .T. ) ;
#211 = DATE_AND_TIME ( #242, #299 ) ;
#212 = CARTESIAN_POINT ( 'NONE',  ( -1.250000000000000000, 0.000000000000000000, 1.199999999999999956 ) ) ;
#213 = ORIENTED_EDGE ( 'NONE', *, *, #203, .T. ) ;
#214 = VERTEX_POINT ( 'NONE', #171 ) ;
#215 = COORDINATED_UNIVERSAL_TIME_OFFSET ( 1, 0, .AHEAD. ) ;
#216 = ADVANCED_FACE ( 'NONE', ( #20 ), #265, .T. ) ;
#217 = MANIFOLD_SOLID_BREP ( 'Zaoblit1', #280 ) ;
#218 = ORIENTED_EDGE ( 'NONE', *, *, #58, .T. ) ;
#219 = APPROVAL_ROLE ( '' ) ;
#220 = EDGE_LOOP ( 'NONE', ( #78, #244 ) ) ;
#221 = DIRECTION ( 'NONE',  ( 1.000000000000000000, 0.000000000000000000, 0.000000000000000000 ) ) ;
#222 = AXIS2_PLACEMENT_3D ( 'NONE', #87, #4, #259 ) ;
#223 = CC_DESIGN_DATE_AND_TIME_ASSIGNMENT ( #165, #290, ( #178 ) ) ;
#224 = DIRECTION ( 'NONE',  ( 0.000000000000000000, 0.000000000000000000, 1.000000000000000000 ) ) ;
#225 = VERTEX_POINT ( 'NONE', #228 ) ;
#226 = VECTOR ( 'NONE', #243, 1000.000000000000000 ) ;
#227 = CARTESIAN_POINT ( 'NONE',  ( -0.5500000000000000444, 0.000000000000000000, 101.2000000000000171 ) ) ;
#228 = CARTESIAN_POINT ( 'NONE',  ( 1.250000000000000000, 1.530808498934191571E-16, 0.000000000000000000 ) ) ;
#229 = LOCAL_TIME ( 12, 41, 22.00000000000000000, #90 ) ;
#230 = PERSON_AND_ORGANIZATION_ROLE ( 'design_owner' ) ;
#231 = CC_DESIGN_DATE_AND_TIME_ASSIGNMENT ( #211, #139, ( #43 ) ) ;
#232 = CARTESIAN_POINT ( 'NONE',  ( 0.000000000000000000, 0.000000000000000000, 0.000000000000000000 ) ) ;
#233 = AXIS2_PLACEMENT_3D ( 'NONE', #184, #188, #74 ) ;
#234 = DIRECTION ( 'NONE',  ( 1.000000000000000000, 0.000000000000000000, 0.000000000000000000 ) ) ;
#235 = DATE_AND_TIME ( #2, #45 ) ;
#236 = DIRECTION ( 'NONE',  ( -1.000000000000000000, 0.000000000000000000, 0.000000000000000000 ) ) ;
#237 = ADVANCED_FACE ( 'NONE', ( #155 ), #252, .F. ) ;
#238 = PERSON_AND_ORGANIZATION ( #156, #199 ) ;
#239 = ORIENTED_EDGE ( 'NONE', *, *, #119, .T. ) ;
#240 = DIRECTION ( 'NONE',  ( 1.000000000000000000, 0.000000000000000000, 0.000000000000000000 ) ) ;
#241 = CARTESIAN_POINT ( 'NONE',  ( 0.000000000000000000, 0.000000000000000000, 101.2000000000000171 ) ) ;
#242 = CALENDAR_DATE ( 2022, 7, 7 ) ;
#243 = DIRECTION ( 'NONE',  ( -0.000000000000000000, -0.000000000000000000, -1.000000000000000000 ) ) ;
#244 = ORIENTED_EDGE ( 'NONE', *, *, #198, .F. ) ;
#245 = PERSON_AND_ORGANIZATION_ROLE ( 'creator' ) ;
#246 = VERTEX_POINT ( 'NONE', #295 ) ;
#247 = PRODUCT_RELATED_PRODUCT_CATEGORY ( 'detail', '', ( #204 ) ) ;
#248 = FACE_OUTER_BOUND ( 'NONE', #172, .T. ) ;
#249 = EDGE_CURVE ( 'NONE', #167, #82, #148, .T. ) ;
#250 = CIRCLE ( 'NONE', #25, 1.250000000000000000 ) ;
#251 = ORIENTED_EDGE ( 'NONE', *, *, #203, .F. ) ;
#252 = PLANE ( 'NONE',  #282 ) ;
#253 = AXIS2_PLACEMENT_3D ( 'NONE', #64, #16, #85 ) ;
#254 = APPLICATION_PROTOCOL_DEFINITION ( 'international standard', 'config_control_design', 1994, #271 ) ;
#255 = ADVANCED_FACE ( 'NONE', ( #103 ), #272, .F. ) ;
#256 = AXIS2_PLACEMENT_3D ( 'NONE', #274, #224, #106 ) ;
#257 = DIRECTION ( 'NONE',  ( 0.000000000000000000, 0.000000000000000000, 1.000000000000000000 ) ) ;
#258 = VECTOR ( 'NONE', #304, 1000.000000000000000 ) ;
#259 = DIRECTION ( 'NONE',  ( 1.000000000000000000, 0.000000000000000000, 0.000000000000000000 ) ) ;
#260 = DATE_AND_TIME ( #69, #190 ) ;
#261 = CARTESIAN_POINT ( 'NONE',  ( 0.000000000000000000, 0.000000000000000000, 1.399999999999998579 ) ) ;
#262 = ORIENTED_EDGE ( 'NONE', *, *, #249, .F. ) ;
#263 = EDGE_LOOP ( 'NONE', ( #116, #175, #218, #239 ) ) ;
#264 = APPROVAL_DATE_TIME ( #97, #192 ) ;
#265 = CYLINDRICAL_SURFACE ( 'NONE', #105, 1.250000000000000000 ) ;
#266 = DIRECTION ( 'NONE',  ( 1.000000000000000000, 0.000000000000000000, -0.000000000000000000 ) ) ;
#267 = PERSON_AND_ORGANIZATION ( #156, #199 ) ;
#268 = ORIENTED_EDGE ( 'NONE', *, *, #154, .T. ) ;
#269 = VERTEX_POINT ( 'NONE', #227 ) ;
#270 = ORIENTED_EDGE ( 'NONE', *, *, #187, .T. ) ;
#271 = APPLICATION_CONTEXT ( 'configuration controlled 3d designs of mechanical parts and assemblies' ) ;
#272 = TOROIDAL_SURFACE ( 'NONE', #256, 0.7500000000000000000, 0.2000000000000000111 ) ;
#273 = DIRECTION ( 'NONE',  ( -1.000000000000000000, 0.000000000000000000, 0.000000000000000000 ) ) ;
#274 = CARTESIAN_POINT ( 'NONE',  ( 0.000000000000000000, 0.000000000000000000, 1.399999999999998579 ) ) ;
#275 = CIRCLE ( 'NONE', #118, 0.7500000000000000000 ) ;
#276 = CARTESIAN_POINT ( 'NONE',  ( 0.000000000000000000, 0.000000000000000000, 101.2000000000000171 ) ) ;
#277 = ADVANCED_FACE ( 'NONE', ( #157 ), #15, .T. ) ;
#278 = PERSON_AND_ORGANIZATION ( #156, #199 ) ;
#279 = DIRECTION ( 'NONE',  ( 0.000000000000000000, 0.000000000000000000, 1.000000000000000000 ) ) ;
#280 = CLOSED_SHELL ( 'NONE', ( #71, #24, #216, #179, #297, #237, #277, #37, #255 ) ) ;
#281 = CARTESIAN_POINT ( 'NONE',  ( -0.5500000000000000444, 0.000000000000000000, 1.399999999999998579 ) ) ;
#282 = AXIS2_PLACEMENT_3D ( 'NONE', #40, #202, #181 ) ;
#283 = DIRECTION ( 'NONE',  ( 0.000000000000000000, 0.000000000000000000, 1.000000000000000000 ) ) ;
#284 = DIRECTION ( 'NONE',  ( 0.000000000000000000, 0.000000000000000000, 1.000000000000000000 ) ) ;
#285 = PERSON_AND_ORGANIZATION ( #156, #199 ) ;
#286 = DIRECTION ( 'NONE',  ( -0.000000000000000000, -0.000000000000000000, -1.000000000000000000 ) ) ;
#287 = CYLINDRICAL_SURFACE ( 'NONE', #60, 0.5500000000000000444 ) ;
#288 = COORDINATED_UNIVERSAL_TIME_OFFSET ( 1, 0, .AHEAD. ) ;
#289 = DIRECTION ( 'NONE',  ( 0.000000000000000000, 0.000000000000000000, 1.000000000000000000 ) ) ;
#290 = DATE_TIME_ROLE ( 'creation_date' ) ;
#291 = ORIENTED_EDGE ( 'NONE', *, *, #89, .F. ) ;
#292 = CC_DESIGN_SECURITY_CLASSIFICATION ( #43, ( #18 ) ) ;
#293 = DESIGN_CONTEXT ( 'detailed design', #145, 'design' ) ;
#294 = APPROVAL_PERSON_ORGANIZATION ( #267, #163, #51 ) ;
#295 = CARTESIAN_POINT ( 'NONE',  ( 0.5500000000000000444, 6.735557395310442516E-17, 101.2000000000000171 ) ) ;
#296 = APPLICATION_PROTOCOL_DEFINITION ( 'international standard', 'config_control_design', 1994, #145 ) ;
#297 = ADVANCED_FACE ( 'NONE', ( #131, #42 ), #84, .T. ) ;
#298 = MECHANICAL_CONTEXT ( 'NONE', #271, 'mechanical' ) ;
#299 = LOCAL_TIME ( 12, 41, 22.00000000000000000, #47 ) ;
#300 = DIRECTION ( 'NONE',  ( 1.000000000000000000, 0.000000000000000000, 0.000000000000000000 ) ) ;
#301 = DIRECTION ( 'NONE',  ( -1.000000000000000000, 0.000000000000000000, 0.000000000000000000 ) ) ;
#302 = PRODUCT_DEFINITION_SHAPE ( 'NONE', 'NONE',  #178 ) ;
#303 = CIRCLE ( 'NONE', #233, 1.250000000000000000 ) ;
#304 = DIRECTION ( 'NONE',  ( -0.000000000000000000, -0.000000000000000000, -1.000000000000000000 ) ) ;
#305 = CARTESIAN_POINT ( 'NONE',  ( -0.5500000000000000444, 0.000000000000000000, 101.2000000000000171 ) ) ;
#306 = DIRECTION ( 'NONE',  ( 0.000000000000000000, 0.000000000000000000, 1.000000000000000000 ) ) ;
#307 = LINE ( 'NONE', #92, #133 ) ;
ENDSEC;
END-ISO-10303-21;
