ISO-10303-21;
HEADER;
FILE_DESCRIPTION (( 'STEP AP203' ),
    '1' );
FILE_NAME ('cdc7.STEP',
    '2022-07-07T10:00:57',
    ( '' ),
    ( '' ),
    'SwSTEP 2.0',
    'SolidWorks 2019',
    '' );
FILE_SCHEMA (( 'CONFIG_CONTROL_DESIGN' ));
ENDSEC;

DATA;
#1 = DIRECTION ( 'NONE',  ( 1.000000000000000000, 0.000000000000000000, 0.000000000000000000 ) ) ;
#2 = AXIS2_PLACEMENT_3D ( 'NONE', #209, #45, #158 ) ;
#3 = EDGE_CURVE ( 'NONE', #225, #120, #168, .T. ) ;
#4 = LOCAL_TIME ( 12, 0, 57.00000000000000000, #80 ) ;
#5 = PLANE ( 'NONE',  #97 ) ;
#6 = CC_DESIGN_PERSON_AND_ORGANIZATION_ASSIGNMENT ( #150, #246, ( #192 ) ) ;
#7 = APPLICATION_PROTOCOL_DEFINITION ( 'international standard', 'config_control_design', 1994, #228 ) ;
#8 = ORIENTED_EDGE ( 'NONE', *, *, #178, .F. ) ;
#9 = CC_DESIGN_APPROVAL ( #198, ( #192 ) ) ;
#10 = ORIENTED_EDGE ( 'NONE', *, *, #129, .F. ) ;
#11 = CALENDAR_DATE ( 2022, 7, 7 ) ;
#12 = APPROVAL ( #221, 'NEURÈENÝ' ) ;
#13 = AXIS2_PLACEMENT_3D ( 'NONE', #156, #53, #188 ) ;
#14 = TOROIDAL_SURFACE ( 'NONE', #71, 4.299999999999998934, 0.2000000000000000111 ) ;
#15 = EDGE_LOOP ( 'NONE', ( #245, #291, #89, #108 ) ) ;
#16 = APPLICATION_CONTEXT ( 'configuration controlled 3d designs of mechanical parts and assemblies' ) ;
#17 = EDGE_CURVE ( 'NONE', #23, #120, #179, .T. ) ;
#18 = CARTESIAN_POINT ( 'NONE',  ( 0.000000000000000000, 0.000000000000000000, 255.0000000000000000 ) ) ;
#19 = AXIS2_PLACEMENT_3D ( 'NONE', #119, #46, #162 ) ;
#20 = CARTESIAN_POINT ( 'NONE',  ( 0.000000000000000000, 0.000000000000000000, 255.0000000000000000 ) ) ;
#21 = CIRCLE ( 'NONE', #87, 4.099999999999999645 ) ;
#22 = ORIENTED_EDGE ( 'NONE', *, *, #17, .T. ) ;
#23 = VERTEX_POINT ( 'NONE', #117 ) ;
#24 = EDGE_CURVE ( 'NONE', #128, #44, #111, .T. ) ;
#25 = CARTESIAN_POINT ( 'NONE',  ( 0.000000000000000000, 0.000000000000000000, 5.000000000000000000 ) ) ;
#26 = AXIS2_PLACEMENT_3D ( 'NONE', #213, #284, #1 ) ;
#27 = CYLINDRICAL_SURFACE ( 'NONE', #200, 7.000000000000000000 ) ;
#28 = CARTESIAN_POINT ( 'NONE',  ( 0.000000000000000000, 0.000000000000000000, 5.200000000000009948 ) ) ;
#29 = DIRECTION ( 'NONE',  ( 1.000000000000000000, 0.000000000000000000, 0.000000000000000000 ) ) ;
#30 =( GEOMETRIC_REPRESENTATION_CONTEXT ( 3 ) GLOBAL_UNCERTAINTY_ASSIGNED_CONTEXT ( ( #34 ) ) GLOBAL_UNIT_ASSIGNED_CONTEXT ( ( #248, #146, #219 ) ) REPRESENTATION_CONTEXT ( 'NONE', 'WORKASPACE' ) );
#31 = CARTESIAN_POINT ( 'NONE',  ( -4.099999999999999645, 0.000000000000000000, 255.0000000000000000 ) ) ;
#32 = CALENDAR_DATE ( 2022, 7, 7 ) ;
#33 = ORIENTED_EDGE ( 'NONE', *, *, #218, .F. ) ;
#34 = UNCERTAINTY_MEASURE_WITH_UNIT (LENGTH_MEASURE( 1.000000000000000082E-05 ), #248, 'distance_accuracy_value', 'NONE');
#35 = PERSON_AND_ORGANIZATION_ROLE ( 'creator' ) ;
#36 = DESIGN_CONTEXT ( 'detailed design', #16, 'design' ) ;
#37 = CIRCLE ( 'NONE', #26, 4.099999999999999645 ) ;
#38 = APPROVAL_ROLE ( '' ) ;
#39 = ORIENTED_EDGE ( 'NONE', *, *, #118, .F. ) ;
#40 = PERSON_AND_ORGANIZATION_ROLE ( 'creator' ) ;
#41 = EDGE_LOOP ( 'NONE', ( #149, #292 ) ) ;
#42 = CARTESIAN_POINT ( 'NONE',  ( 0.000000000000000000, 0.000000000000000000, 255.0000000000000000 ) ) ;
#43 = ADVANCED_FACE ( 'NONE', ( #227 ), #279, .T. ) ;
#44 = VERTEX_POINT ( 'NONE', #203 ) ;
#45 = DIRECTION ( 'NONE',  ( -0.000000000000000000, -0.000000000000000000, -1.000000000000000000 ) ) ;
#46 = DIRECTION ( 'NONE',  ( 0.000000000000000000, 0.000000000000000000, 1.000000000000000000 ) ) ;
#47 = PERSON ( 'NEURÈENÝ', 'NEURÈENÝ', 'NEURÈENÝ', ('NEURÈENÝ'), ('NEURÈENÝ'), ('NEURÈENÝ') ) ;
#48 = FACE_OUTER_BOUND ( 'NONE', #223, .T. ) ;
#49 = CARTESIAN_POINT ( 'NONE',  ( -4.099999999999999645, 0.000000000000000000, 5.200000000000009948 ) ) ;
#50 = DIRECTION ( 'NONE',  ( -0.000000000000000000, -0.000000000000000000, -1.000000000000000000 ) ) ;
#51 = FACE_OUTER_BOUND ( 'NONE', #249, .T. ) ;
#52 = FACE_OUTER_BOUND ( 'NONE', #15, .T. ) ;
#53 = DIRECTION ( 'NONE',  ( 0.000000000000000000, 0.000000000000000000, 1.000000000000000000 ) ) ;
#54 = COORDINATED_UNIVERSAL_TIME_OFFSET ( 1, 0, .AHEAD. ) ;
#55 = ORIENTED_EDGE ( 'NONE', *, *, #17, .F. ) ;
#56 = PERSON_AND_ORGANIZATION_ROLE ( 'design_owner' ) ;
#57 = ORIENTED_EDGE ( 'NONE', *, *, #166, .F. ) ;
#58 = AXIS2_PLACEMENT_3D ( 'NONE', #232, #135, #281 ) ;
#59 = EDGE_CURVE ( 'NONE', #253, #220, #293, .T. ) ;
#60 = PERSON_AND_ORGANIZATION_ROLE ( 'classification_officer' ) ;
#61 = COORDINATED_UNIVERSAL_TIME_OFFSET ( 1, 0, .AHEAD. ) ;
#62 = APPROVAL_DATE_TIME ( #110, #12 ) ;
#63 = DIRECTION ( 'NONE',  ( -1.000000000000000000, 1.224646799147353454E-16, 0.000000000000000000 ) ) ;
#64 = AXIS2_PLACEMENT_3D ( 'NONE', #20, #115, #256 ) ;
#65 = LOCAL_TIME ( 12, 0, 57.00000000000000000, #61 ) ;
#66 = CYLINDRICAL_SURFACE ( 'NONE', #2, 7.000000000000000000 ) ;
#67 = ORIENTED_EDGE ( 'NONE', *, *, #59, .T. ) ;
#68 = ORIENTED_EDGE ( 'NONE', *, *, #290, .F. ) ;
#69 = ADVANCED_FACE ( 'NONE', ( #48 ), #301, .F. ) ;
#70 = FACE_OUTER_BOUND ( 'NONE', #147, .T. ) ;
#71 = AXIS2_PLACEMENT_3D ( 'NONE', #95, #185, #183 ) ;
#72 = CARTESIAN_POINT ( 'NONE',  ( -7.000000000000000000, 0.000000000000000000, 0.000000000000000000 ) ) ;
#73 = DIRECTION ( 'NONE',  ( 0.000000000000000000, 0.000000000000000000, -1.000000000000000000 ) ) ;
#74 = DIRECTION ( 'NONE',  ( 0.000000000000000000, 0.000000000000000000, 1.000000000000000000 ) ) ;
#75 = LOCAL_TIME ( 12, 0, 57.00000000000000000, #222 ) ;
#76 = CARTESIAN_POINT ( 'NONE',  ( 0.000000000000000000, 0.000000000000000000, 5.000000000000000000 ) ) ;
#77 = CARTESIAN_POINT ( 'NONE',  ( -4.099999999999999645, 0.000000000000000000, 255.0000000000000000 ) ) ;
#78 = DATE_TIME_ROLE ( 'creation_date' ) ;
#79 = ADVANCED_FACE ( 'NONE', ( #233 ), #204, .T. ) ;
#80 = COORDINATED_UNIVERSAL_TIME_OFFSET ( 1, 0, .AHEAD. ) ;
#81 = ADVANCED_FACE ( 'NONE', ( #140 ), #66, .T. ) ;
#82 = ORIENTED_EDGE ( 'NONE', *, *, #202, .T. ) ;
#83 = AXIS2_PLACEMENT_3D ( 'NONE', #18, #159, #160 ) ;
#84 = CIRCLE ( 'NONE', #151, 7.000000000000000000 ) ;
#85 = VERTEX_POINT ( 'NONE', #206 ) ;
#86 = DIRECTION ( 'NONE',  ( -1.000000000000000000, 0.000000000000000000, 0.000000000000000000 ) ) ;
#87 = AXIS2_PLACEMENT_3D ( 'NONE', #28, #306, #145 ) ;
#88 = ORIENTED_EDGE ( 'NONE', *, *, #208, .F. ) ;
#89 = ORIENTED_EDGE ( 'NONE', *, *, #208, .T. ) ;
#90 = CC_DESIGN_DATE_AND_TIME_ASSIGNMENT ( #127, #289, ( #231 ) ) ;
#91 = CARTESIAN_POINT ( 'NONE',  ( 0.000000000000000000, 0.000000000000000000, 0.000000000000000000 ) ) ;
#92 = DIRECTION ( 'NONE',  ( -0.000000000000000000, -0.000000000000000000, -1.000000000000000000 ) ) ;
#93 = CARTESIAN_POINT ( 'NONE',  ( 0.000000000000000000, 0.000000000000000000, 5.000000000000000000 ) ) ;
#94 = EDGE_CURVE ( 'NONE', #120, #225, #186, .T. ) ;
#95 = CARTESIAN_POINT ( 'NONE',  ( 0.000000000000000000, 0.000000000000000000, 5.200000000000009948 ) ) ;
#96 = PRODUCT_DEFINITION_SHAPE ( 'NONE', 'NONE',  #305 ) ;
#97 = AXIS2_PLACEMENT_3D ( 'NONE', #100, #303, #234 ) ;
#98 = DIRECTION ( 'NONE',  ( 0.000000000000000000, 0.000000000000000000, 1.000000000000000000 ) ) ;
#99 = CC_DESIGN_APPROVAL ( #12, ( #231 ) ) ;
#100 = CARTESIAN_POINT ( 'NONE',  ( 0.000000000000000000, 0.000000000000000000, 5.000000000000000000 ) ) ;
#101 = ADVANCED_BREP_SHAPE_REPRESENTATION ( 'cdc7', ( #137, #116 ), #30 ) ;
#102 = ADVANCED_FACE ( 'NONE', ( #70 ), #259, .T. ) ;
#103 = CALENDAR_DATE ( 2022, 7, 7 ) ;
#104 = APPROVAL_ROLE ( '' ) ;
#105 = ORIENTED_EDGE ( 'NONE', *, *, #269, .T. ) ;
#106 = LOCAL_TIME ( 12, 0, 57.00000000000000000, #54 ) ;
#107 = PERSON_AND_ORGANIZATION ( #47, #161 ) ;
#108 = ORIENTED_EDGE ( 'NONE', *, *, #295, .F. ) ;
#109 = CC_DESIGN_DATE_AND_TIME_ASSIGNMENT ( #152, #78, ( #305 ) ) ;
#110 = DATE_AND_TIME ( #11, #75 ) ;
#111 = CIRCLE ( 'NONE', #282, 0.1999999999999996503 ) ;
#112 = ORIENTED_EDGE ( 'NONE', *, *, #166, .T. ) ;
#113 = ADVANCED_FACE ( 'NONE', ( #216, #124 ), #5, .T. ) ;
#114 = EDGE_LOOP ( 'NONE', ( #10, #297, #82, #180 ) ) ;
#115 = DIRECTION ( 'NONE',  ( 0.000000000000000000, 0.000000000000000000, 1.000000000000000000 ) ) ;
#116 = AXIS2_PLACEMENT_3D ( 'NONE', #243, #199, #294 ) ;
#117 = CARTESIAN_POINT ( 'NONE',  ( 7.000000000000000000, 8.572527594031473190E-16, 5.000000000000000000 ) ) ;
#118 = EDGE_CURVE ( 'NONE', #220, #273, #237, .T. ) ;
#119 = CARTESIAN_POINT ( 'NONE',  ( 0.000000000000000000, 0.000000000000000000, 0.000000000000000000 ) ) ;
#120 = VERTEX_POINT ( 'NONE', #141 ) ;
#121 = DIRECTION ( 'NONE',  ( -0.000000000000000000, -0.000000000000000000, -1.000000000000000000 ) ) ;
#122 = CARTESIAN_POINT ( 'NONE',  ( 4.099999999999999645, 5.021051876504147385E-16, 255.0000000000000000 ) ) ;
#123 = DIRECTION ( 'NONE',  ( 0.000000000000000000, 0.000000000000000000, 1.000000000000000000 ) ) ;
#124 = FACE_OUTER_BOUND ( 'NONE', #298, .T. ) ;
#125 = PRODUCT_RELATED_PRODUCT_CATEGORY ( 'detail', '', ( #280 ) ) ;
#126 = CARTESIAN_POINT ( 'NONE',  ( 0.000000000000000000, 0.000000000000000000, 5.200000000000009948 ) ) ;
#127 = DATE_AND_TIME ( #133, #106 ) ;
#128 = VERTEX_POINT ( 'NONE', #49 ) ;
#129 = EDGE_CURVE ( 'NONE', #220, #253, #247, .T. ) ;
#130 = PERSON_AND_ORGANIZATION ( #47, #161 ) ;
#131 = AXIS2_PLACEMENT_3D ( 'NONE', #42, #299, #86 ) ;
#132 = AXIS2_PLACEMENT_3D ( 'NONE', #163, #98, #143 ) ;
#133 = CALENDAR_DATE ( 2022, 7, 7 ) ;
#134 = APPLICATION_PROTOCOL_DEFINITION ( 'international standard', 'config_control_design', 1994, #16 ) ;
#135 = DIRECTION ( 'NONE',  ( 0.000000000000000000, 0.000000000000000000, 1.000000000000000000 ) ) ;
#136 = EDGE_LOOP ( 'NONE', ( #302, #22, #277, #33 ) ) ;
#137 = MANIFOLD_SOLID_BREP ( 'Zaoblit1', #224 ) ;
#138 = ORIENTED_EDGE ( 'NONE', *, *, #193, .T. ) ;
#139 = VECTOR ( 'NONE', #144, 1000.000000000000000 ) ;
#140 = FACE_OUTER_BOUND ( 'NONE', #136, .T. ) ;
#141 = CARTESIAN_POINT ( 'NONE',  ( 7.000000000000000000, 8.572527594031473190E-16, 0.000000000000000000 ) ) ;
#142 = CIRCLE ( 'NONE', #240, 4.299999999999998934 ) ;
#143 = DIRECTION ( 'NONE',  ( 1.000000000000000000, 0.000000000000000000, 0.000000000000000000 ) ) ;
#144 = DIRECTION ( 'NONE',  ( -0.000000000000000000, -0.000000000000000000, -1.000000000000000000 ) ) ;
#145 = DIRECTION ( 'NONE',  ( 1.000000000000000000, 0.000000000000000000, 0.000000000000000000 ) ) ;
#146 =( NAMED_UNIT ( * ) PLANE_ANGLE_UNIT ( ) SI_UNIT ( $, .RADIAN. ) );
#147 = EDGE_LOOP ( 'NONE', ( #67, #197 ) ) ;
#148 = CC_DESIGN_PERSON_AND_ORGANIZATION_ASSIGNMENT ( #194, #35, ( #192 ) ) ;
#149 = ORIENTED_EDGE ( 'NONE', *, *, #178, .T. ) ;
#150 = PERSON_AND_ORGANIZATION ( #47, #161 ) ;
#151 = AXIS2_PLACEMENT_3D ( 'NONE', #93, #164, #29 ) ;
#152 = DATE_AND_TIME ( #32, #4 ) ;
#153 = ORIENTED_EDGE ( 'NONE', *, *, #59, .F. ) ;
#154 = CALENDAR_DATE ( 2022, 7, 7 ) ;
#155 = ORIENTED_EDGE ( 'NONE', *, *, #94, .F. ) ;
#156 = CARTESIAN_POINT ( 'NONE',  ( 0.000000000000000000, 0.000000000000000000, 255.0000000000000000 ) ) ;
#157 = APPROVAL_PERSON_ORGANIZATION ( #107, #212, #272 ) ;
#158 = DIRECTION ( 'NONE',  ( -1.000000000000000000, 0.000000000000000000, 0.000000000000000000 ) ) ;
#159 = DIRECTION ( 'NONE',  ( -0.000000000000000000, -0.000000000000000000, -1.000000000000000000 ) ) ;
#160 = DIRECTION ( 'NONE',  ( -1.000000000000000000, 0.000000000000000000, 0.000000000000000000 ) ) ;
#161 = ORGANIZATION ( 'NEURÈENÝ', 'NEURÈENÝ', '' ) ;
#162 = DIRECTION ( 'NONE',  ( 1.000000000000000000, 0.000000000000000000, -0.000000000000000000 ) ) ;
#163 = CARTESIAN_POINT ( 'NONE',  ( 0.000000000000000000, 0.000000000000000000, 255.0000000000000000 ) ) ;
#164 = DIRECTION ( 'NONE',  ( 0.000000000000000000, 0.000000000000000000, 1.000000000000000000 ) ) ;
#165 = DIRECTION ( 'NONE',  ( 1.000000000000000000, 0.000000000000000000, 0.000000000000000000 ) ) ;
#166 = EDGE_CURVE ( 'NONE', #85, #23, #187, .T. ) ;
#167 = CARTESIAN_POINT ( 'NONE',  ( 4.099999999999999645, 5.021051876504147385E-16, 5.200000000000009948 ) ) ;
#168 = CIRCLE ( 'NONE', #177, 7.000000000000000000 ) ;
#169 = SECURITY_CLASSIFICATION_LEVEL ( 'unclassified' ) ;
#170 = AXIS2_PLACEMENT_3D ( 'NONE', #126, #74, #239 ) ;
#171 = ORIENTED_EDGE ( 'NONE', *, *, #3, .F. ) ;
#172 = PERSON_AND_ORGANIZATION ( #47, #161 ) ;
#173 = ORIENTED_EDGE ( 'NONE', *, *, #290, .T. ) ;
#174 = PERSON_AND_ORGANIZATION ( #47, #161 ) ;
#175 = ORIENTED_EDGE ( 'NONE', *, *, #218, .T. ) ;
#176 = ORIENTED_EDGE ( 'NONE', *, *, #3, .T. ) ;
#177 = AXIS2_PLACEMENT_3D ( 'NONE', #91, #275, #254 ) ;
#178 = EDGE_CURVE ( 'NONE', #195, #44, #262, .T. ) ;
#179 = LINE ( 'NONE', #229, #214 ) ;
#180 = ORIENTED_EDGE ( 'NONE', *, *, #269, .F. ) ;
#181 = DIRECTION ( 'NONE',  ( 1.224646799147353207E-16, 1.000000000000000000, -0.000000000000000000 ) ) ;
#182 = LOCAL_TIME ( 12, 0, 57.00000000000000000, #268 ) ;
#183 = DIRECTION ( 'NONE',  ( 1.000000000000000000, 0.000000000000000000, 0.000000000000000000 ) ) ;
#184 = DIRECTION ( 'NONE',  ( 0.000000000000000000, -1.000000000000000000, 0.000000000000000000 ) ) ;
#185 = DIRECTION ( 'NONE',  ( 0.000000000000000000, 0.000000000000000000, 1.000000000000000000 ) ) ;
#186 = CIRCLE ( 'NONE', #58, 7.000000000000000000 ) ;
#187 = CIRCLE ( 'NONE', #288, 7.000000000000000000 ) ;
#188 = DIRECTION ( 'NONE',  ( 1.000000000000000000, 0.000000000000000000, -0.000000000000000000 ) ) ;
#189 = DIRECTION ( 'NONE',  ( 1.000000000000000000, 0.000000000000000000, 0.000000000000000000 ) ) ;
#190 = APPROVAL_DATE_TIME ( #244, #198 ) ;
#191 = APPROVAL_STATUS ( 'not_yet_approved' ) ;
#192 = PRODUCT_DEFINITION_FORMATION_WITH_SPECIFIED_SOURCE ( 'LIBOVOLNÝ', '', #280, .NOT_KNOWN. ) ;
#193 = EDGE_CURVE ( 'NONE', #23, #85, #84, .T. ) ;
#194 = PERSON_AND_ORGANIZATION ( #47, #161 ) ;
#195 = VERTEX_POINT ( 'NONE', #210 ) ;
#196 = MECHANICAL_CONTEXT ( 'NONE', #228, 'mechanical' ) ;
#197 = ORIENTED_EDGE ( 'NONE', *, *, #129, .T. ) ;
#198 = APPROVAL ( #270, 'NEURÈENÝ' ) ;
#199 = DIRECTION ( 'NONE',  ( 0.000000000000000000, 0.000000000000000000, 1.000000000000000000 ) ) ;
#200 = AXIS2_PLACEMENT_3D ( 'NONE', #263, #286, #211 ) ;
#201 = EDGE_LOOP ( 'NONE', ( #39, #153, #105, #173 ) ) ;
#202 = EDGE_CURVE ( 'NONE', #273, #128, #21, .T. ) ;
#203 = CARTESIAN_POINT ( 'NONE',  ( -4.299999999999998934, 5.265981236333617484E-16, 5.000000000000005329 ) ) ;
#204 = CYLINDRICAL_SURFACE ( 'NONE', #131, 4.099999999999999645 ) ;
#205 = CC_DESIGN_APPROVAL ( #212, ( #305 ) ) ;
#206 = CARTESIAN_POINT ( 'NONE',  ( -7.000000000000000000, 0.000000000000000000, 5.000000000000000000 ) ) ;
#207 = ORIENTED_EDGE ( 'NONE', *, *, #24, .T. ) ;
#208 = EDGE_CURVE ( 'NONE', #273, #195, #304, .T. ) ;
#209 = CARTESIAN_POINT ( 'NONE',  ( 0.000000000000000000, 0.000000000000000000, 5.000000000000000000 ) ) ;
#210 = CARTESIAN_POINT ( 'NONE',  ( 4.299999999999998934, 0.000000000000000000, 5.000000000000005329 ) ) ;
#211 = DIRECTION ( 'NONE',  ( -1.000000000000000000, 0.000000000000000000, 0.000000000000000000 ) ) ;
#212 = APPROVAL ( #191, 'NEURÈENÝ' ) ;
#213 = CARTESIAN_POINT ( 'NONE',  ( 0.000000000000000000, 0.000000000000000000, 5.200000000000009948 ) ) ;
#214 = VECTOR ( 'NONE', #274, 1000.000000000000000 ) ;
#215 = AXIS2_PLACEMENT_3D ( 'NONE', #25, #121, #165 ) ;
#216 = FACE_BOUND ( 'NONE', #41, .T. ) ;
#217 = PERSON_AND_ORGANIZATION ( #47, #161 ) ;
#218 = EDGE_CURVE ( 'NONE', #85, #225, #241, .T. ) ;
#219 =( NAMED_UNIT ( * ) SI_UNIT ( $, .STERADIAN. ) SOLID_ANGLE_UNIT ( ) );
#220 = VERTEX_POINT ( 'NONE', #260 ) ;
#221 = APPROVAL_STATUS ( 'not_yet_approved' ) ;
#222 = COORDINATED_UNIVERSAL_TIME_OFFSET ( 1, 0, .AHEAD. ) ;
#223 = EDGE_LOOP ( 'NONE', ( #171, #155 ) ) ;
#224 = CLOSED_SHELL ( 'NONE', ( #278, #79, #81, #242, #113, #69, #43, #102, #255 ) ) ;
#225 = VERTEX_POINT ( 'NONE', #72 ) ;
#226 = AXIS2_PLACEMENT_3D ( 'NONE', #265, #184, #73 ) ;
#227 = FACE_OUTER_BOUND ( 'NONE', #201, .T. ) ;
#228 = APPLICATION_CONTEXT ( 'configuration controlled 3d designs of mechanical parts and assemblies' ) ;
#229 = CARTESIAN_POINT ( 'NONE',  ( 7.000000000000000000, 8.572527594031473190E-16, 5.000000000000000000 ) ) ;
#230 = EDGE_LOOP ( 'NONE', ( #68, #207, #8, #88 ) ) ;
#231 = SECURITY_CLASSIFICATION ( '', '', #169 ) ;
#232 = CARTESIAN_POINT ( 'NONE',  ( 0.000000000000000000, 0.000000000000000000, 0.000000000000000000 ) ) ;
#233 = FACE_OUTER_BOUND ( 'NONE', #114, .T. ) ;
#234 = DIRECTION ( 'NONE',  ( 1.000000000000000000, 0.000000000000000000, -0.000000000000000000 ) ) ;
#235 = TOROIDAL_SURFACE ( 'NONE', #170, 4.299999999999998934, 0.2000000000000000111 ) ;
#236 = CC_DESIGN_PERSON_AND_ORGANIZATION_ASSIGNMENT ( #267, #60, ( #231 ) ) ;
#237 = LINE ( 'NONE', #122, #257 ) ;
#238 = LINE ( 'NONE', #77, #139 ) ;
#239 = DIRECTION ( 'NONE',  ( 1.000000000000000000, 0.000000000000000000, 0.000000000000000000 ) ) ;
#240 = AXIS2_PLACEMENT_3D ( 'NONE', #76, #92, #264 ) ;
#241 = LINE ( 'NONE', #261, #300 ) ;
#242 = ADVANCED_FACE ( 'NONE', ( #51 ), #27, .T. ) ;
#243 = CARTESIAN_POINT ( 'NONE',  ( 0.000000000000000000, 0.000000000000000000, 0.000000000000000000 ) ) ;
#244 = DATE_AND_TIME ( #103, #182 ) ;
#245 = ORIENTED_EDGE ( 'NONE', *, *, #24, .F. ) ;
#246 = PERSON_AND_ORGANIZATION_ROLE ( 'design_supplier' ) ;
#247 = CIRCLE ( 'NONE', #132, 4.099999999999999645 ) ;
#248 =( LENGTH_UNIT ( ) NAMED_UNIT ( * ) SI_UNIT ( .MILLI., .METRE. ) );
#249 = EDGE_LOOP ( 'NONE', ( #55, #57, #175, #176 ) ) ;
#250 = APPROVAL_DATE_TIME ( #287, #212 ) ;
#251 = CARTESIAN_POINT ( 'NONE',  ( -4.299999999999998934, 5.265981236333617484E-16, 5.200000000000009948 ) ) ;
#252 = CC_DESIGN_PERSON_AND_ORGANIZATION_ASSIGNMENT ( #174, #40, ( #305 ) ) ;
#253 = VERTEX_POINT ( 'NONE', #31 ) ;
#254 = DIRECTION ( 'NONE',  ( 1.000000000000000000, 0.000000000000000000, 0.000000000000000000 ) ) ;
#255 = ADVANCED_FACE ( 'NONE', ( #52 ), #14, .F. ) ;
#256 = DIRECTION ( 'NONE',  ( 1.000000000000000000, 0.000000000000000000, 0.000000000000000000 ) ) ;
#257 = VECTOR ( 'NONE', #283, 1000.000000000000000 ) ;
#258 = APPROVAL_PERSON_ORGANIZATION ( #217, #198, #104 ) ;
#259 = PLANE ( 'NONE',  #13 ) ;
#260 = CARTESIAN_POINT ( 'NONE',  ( 4.099999999999999645, 5.021051876504147385E-16, 255.0000000000000000 ) ) ;
#261 = CARTESIAN_POINT ( 'NONE',  ( -7.000000000000000000, 0.000000000000000000, 5.000000000000000000 ) ) ;
#262 = CIRCLE ( 'NONE', #215, 4.299999999999998934 ) ;
#263 = CARTESIAN_POINT ( 'NONE',  ( 0.000000000000000000, 0.000000000000000000, 5.000000000000000000 ) ) ;
#264 = DIRECTION ( 'NONE',  ( 1.000000000000000000, 0.000000000000000000, 0.000000000000000000 ) ) ;
#265 = CARTESIAN_POINT ( 'NONE',  ( 4.299999999999998934, 0.000000000000000000, 5.200000000000009948 ) ) ;
#266 = CC_DESIGN_PERSON_AND_ORGANIZATION_ASSIGNMENT ( #172, #56, ( #280 ) ) ;
#267 = PERSON_AND_ORGANIZATION ( #47, #161 ) ;
#268 = COORDINATED_UNIVERSAL_TIME_OFFSET ( 1, 0, .AHEAD. ) ;
#269 = EDGE_CURVE ( 'NONE', #253, #128, #238, .T. ) ;
#270 = APPROVAL_STATUS ( 'not_yet_approved' ) ;
#271 = CC_DESIGN_SECURITY_CLASSIFICATION ( #231, ( #192 ) ) ;
#272 = APPROVAL_ROLE ( '' ) ;
#273 = VERTEX_POINT ( 'NONE', #167 ) ;
#274 = DIRECTION ( 'NONE',  ( -0.000000000000000000, -0.000000000000000000, -1.000000000000000000 ) ) ;
#275 = DIRECTION ( 'NONE',  ( 0.000000000000000000, 0.000000000000000000, 1.000000000000000000 ) ) ;
#276 = APPROVAL_PERSON_ORGANIZATION ( #130, #12, #38 ) ;
#277 = ORIENTED_EDGE ( 'NONE', *, *, #94, .T. ) ;
#278 = ADVANCED_FACE ( 'NONE', ( #307 ), #235, .F. ) ;
#279 = CYLINDRICAL_SURFACE ( 'NONE', #83, 4.099999999999999645 ) ;
#280 = PRODUCT ( 'cdc7', 'cdc7', '', ( #196 ) ) ;
#281 = DIRECTION ( 'NONE',  ( 1.000000000000000000, 0.000000000000000000, 0.000000000000000000 ) ) ;
#282 = AXIS2_PLACEMENT_3D ( 'NONE', #251, #181, #63 ) ;
#283 = DIRECTION ( 'NONE',  ( -0.000000000000000000, -0.000000000000000000, -1.000000000000000000 ) ) ;
#284 = DIRECTION ( 'NONE',  ( 0.000000000000000000, 0.000000000000000000, 1.000000000000000000 ) ) ;
#285 = CARTESIAN_POINT ( 'NONE',  ( 0.000000000000000000, 0.000000000000000000, 5.000000000000000000 ) ) ;
#286 = DIRECTION ( 'NONE',  ( -0.000000000000000000, -0.000000000000000000, -1.000000000000000000 ) ) ;
#287 = DATE_AND_TIME ( #154, #65 ) ;
#288 = AXIS2_PLACEMENT_3D ( 'NONE', #285, #123, #189 ) ;
#289 = DATE_TIME_ROLE ( 'classification_date' ) ;
#290 = EDGE_CURVE ( 'NONE', #128, #273, #37, .T. ) ;
#291 = ORIENTED_EDGE ( 'NONE', *, *, #202, .F. ) ;
#292 = ORIENTED_EDGE ( 'NONE', *, *, #295, .T. ) ;
#293 = CIRCLE ( 'NONE', #64, 4.099999999999999645 ) ;
#294 = DIRECTION ( 'NONE',  ( 1.000000000000000000, 0.000000000000000000, 0.000000000000000000 ) ) ;
#295 = EDGE_CURVE ( 'NONE', #44, #195, #142, .T. ) ;
#296 = SHAPE_DEFINITION_REPRESENTATION ( #96, #101 ) ;
#297 = ORIENTED_EDGE ( 'NONE', *, *, #118, .T. ) ;
#298 = EDGE_LOOP ( 'NONE', ( #112, #138 ) ) ;
#299 = DIRECTION ( 'NONE',  ( -0.000000000000000000, -0.000000000000000000, -1.000000000000000000 ) ) ;
#300 = VECTOR ( 'NONE', #50, 1000.000000000000000 ) ;
#301 = PLANE ( 'NONE',  #19 ) ;
#302 = ORIENTED_EDGE ( 'NONE', *, *, #193, .F. ) ;
#303 = DIRECTION ( 'NONE',  ( 0.000000000000000000, 0.000000000000000000, 1.000000000000000000 ) ) ;
#304 = CIRCLE ( 'NONE', #226, 0.1999999999999996503 ) ;
#305 = PRODUCT_DEFINITION ( 'NEZNÁMÝ', '', #192, #36 ) ;
#306 = DIRECTION ( 'NONE',  ( 0.000000000000000000, 0.000000000000000000, 1.000000000000000000 ) ) ;
#307 = FACE_OUTER_BOUND ( 'NONE', #230, .T. ) ;
ENDSEC;
END-ISO-10303-21;
