ISO-10303-21;
HEADER;
FILE_DESCRIPTION (( 'STEP AP203' ),
    '1' );
FILE_NAME ('6134.STEP',
    '2022-07-07T10:07:10',
    ( '' ),
    ( '' ),
    'SwSTEP 2.0',
    'SolidWorks 2019',
    '' );
FILE_SCHEMA (( 'CONFIG_CONTROL_DESIGN' ));
ENDSEC;

DATA;
#1 = DIRECTION ( 'NONE',  ( -0.000000000000000000, -0.000000000000000000, -1.000000000000000000 ) ) ;
#2 = AXIS2_PLACEMENT_3D ( 'NONE', #71, #149, #193 ) ;
#3 = PRODUCT_DEFINITION_FORMATION_WITH_SPECIFIED_SOURCE ( 'LIBOVOLNÝ', '', #190, .NOT_KNOWN. ) ;
#4 =( NAMED_UNIT ( * ) PLANE_ANGLE_UNIT ( ) SI_UNIT ( $, .RADIAN. ) );
#5 = VECTOR ( 'NONE', #25, 1000.000000000000000 ) ;
#6 = ORIENTED_EDGE ( 'NONE', *, *, #176, .F. ) ;
#7 = ADVANCED_FACE ( 'NONE', ( #246 ), #79, .F. ) ;
#8 = EDGE_LOOP ( 'NONE', ( #102, #269, #242, #173 ) ) ;
#9 = COORDINATED_UNIVERSAL_TIME_OFFSET ( 1, 0, .AHEAD. ) ;
#10 = AXIS2_PLACEMENT_3D ( 'NONE', #236, #189, #123 ) ;
#11 =( GEOMETRIC_REPRESENTATION_CONTEXT ( 3 ) GLOBAL_UNCERTAINTY_ASSIGNED_CONTEXT ( ( #291 ) ) GLOBAL_UNIT_ASSIGNED_CONTEXT ( ( #260, #4, #51 ) ) REPRESENTATION_CONTEXT ( 'NONE', 'WORKASPACE' ) );
#12 = ORIENTED_EDGE ( 'NONE', *, *, #222, .F. ) ;
#13 = CC_DESIGN_PERSON_AND_ORGANIZATION_ASSIGNMENT ( #240, #230, ( #3 ) ) ;
#14 = SHAPE_DEFINITION_REPRESENTATION ( #151, #80 ) ;
#15 = ADVANCED_FACE ( 'NONE', ( #20 ), #145, .T. ) ;
#16 = ORIENTED_EDGE ( 'NONE', *, *, #287, .T. ) ;
#17 = AXIS2_PLACEMENT_3D ( 'NONE', #183, #206, #274 ) ;
#18 = CARTESIAN_POINT ( 'NONE',  ( 3.500000000000000000, 4.286263797015736595E-16, 5.200000000000009948 ) ) ;
#19 = PERSON_AND_ORGANIZATION ( #142, #174 ) ;
#20 = FACE_OUTER_BOUND ( 'NONE', #136, .T. ) ;
#21 = LOCAL_TIME ( 12, 7, 10.00000000000000000, #297 ) ;
#22 = CALENDAR_DATE ( 2022, 7, 7 ) ;
#23 = CARTESIAN_POINT ( 'NONE',  ( 0.000000000000000000, 0.000000000000000000, 5.000000000000000000 ) ) ;
#24 = AXIS2_PLACEMENT_3D ( 'NONE', #110, #276, #232 ) ;
#25 = DIRECTION ( 'NONE',  ( -0.000000000000000000, -0.000000000000000000, -1.000000000000000000 ) ) ;
#26 = FACE_OUTER_BOUND ( 'NONE', #195, .T. ) ;
#27 = EDGE_CURVE ( 'NONE', #85, #266, #35, .T. ) ;
#28 = DIRECTION ( 'NONE',  ( 0.000000000000000000, 0.000000000000000000, 1.000000000000000000 ) ) ;
#29 = DIRECTION ( 'NONE',  ( 0.000000000000000000, 0.000000000000000000, 1.000000000000000000 ) ) ;
#30 = DIRECTION ( 'NONE',  ( 1.000000000000000000, 0.000000000000000000, -0.000000000000000000 ) ) ;
#31 = APPROVAL_ROLE ( '' ) ;
#32 = ORIENTED_EDGE ( 'NONE', *, *, #116, .T. ) ;
#33 = EDGE_LOOP ( 'NONE', ( #289, #243 ) ) ;
#34 = ORIENTED_EDGE ( 'NONE', *, *, #249, .F. ) ;
#35 = CIRCLE ( 'NONE', #209, 3.700000000000000178 ) ;
#36 = VERTEX_POINT ( 'NONE', #214 ) ;
#37 = SECURITY_CLASSIFICATION_LEVEL ( 'unclassified' ) ;
#38 = APPROVAL_PERSON_ORGANIZATION ( #19, #131, #141 ) ;
#39 = ORIENTED_EDGE ( 'NONE', *, *, #44, .F. ) ;
#40 = APPROVAL_DATE_TIME ( #105, #67 ) ;
#41 = LINE ( 'NONE', #115, #286 ) ;
#42 = DIRECTION ( 'NONE',  ( 1.000000000000000000, 0.000000000000000000, 0.000000000000000000 ) ) ;
#43 = APPROVAL_STATUS ( 'not_yet_approved' ) ;
#44 = EDGE_CURVE ( 'NONE', #266, #85, #54, .T. ) ;
#45 = FACE_BOUND ( 'NONE', #225, .T. ) ;
#46 = DIRECTION ( 'NONE',  ( 1.000000000000000000, 0.000000000000000000, 0.000000000000000000 ) ) ;
#47 = CIRCLE ( 'NONE', #178, 6.000000000000000888 ) ;
#48 = DIRECTION ( 'NONE',  ( -1.000000000000000000, 1.224646799147350742E-16, 0.000000000000000000 ) ) ;
#49 = PERSON_AND_ORGANIZATION_ROLE ( 'design_owner' ) ;
#50 = LOCAL_TIME ( 12, 7, 10.00000000000000000, #77 ) ;
#51 =( NAMED_UNIT ( * ) SI_UNIT ( $, .STERADIAN. ) SOLID_ANGLE_UNIT ( ) );
#52 = CYLINDRICAL_SURFACE ( 'NONE', #121, 3.500000000000000000 ) ;
#53 = CYLINDRICAL_SURFACE ( 'NONE', #2, 6.000000000000000888 ) ;
#54 = CIRCLE ( 'NONE', #93, 3.700000000000000178 ) ;
#55 = ORIENTED_EDGE ( 'NONE', *, *, #116, .F. ) ;
#56 = ORIENTED_EDGE ( 'NONE', *, *, #219, .F. ) ;
#57 = AXIS2_PLACEMENT_3D ( 'NONE', #92, #118, #184 ) ;
#58 = COORDINATED_UNIVERSAL_TIME_OFFSET ( 1, 0, .AHEAD. ) ;
#59 = ORIENTED_EDGE ( 'NONE', *, *, #212, .F. ) ;
#60 = APPROVAL_DATE_TIME ( #182, #131 ) ;
#61 = AXIS2_PLACEMENT_3D ( 'NONE', #259, #119, #95 ) ;
#62 = PERSON_AND_ORGANIZATION ( #142, #174 ) ;
#63 = DIRECTION ( 'NONE',  ( 0.000000000000000000, 0.000000000000000000, -1.000000000000000000 ) ) ;
#64 = EDGE_CURVE ( 'NONE', #244, #198, #301, .T. ) ;
#65 = PLANE ( 'NONE',  #24 ) ;
#66 = DIRECTION ( 'NONE',  ( 1.000000000000000000, 0.000000000000000000, 0.000000000000000000 ) ) ;
#67 = APPROVAL ( #251, 'NEURÈENÝ' ) ;
#68 = DIRECTION ( 'NONE',  ( -1.000000000000000000, 0.000000000000000000, 0.000000000000000000 ) ) ;
#69 = EDGE_CURVE ( 'NONE', #107, #109, #41, .T. ) ;
#70 = FACE_OUTER_BOUND ( 'NONE', #81, .T. ) ;
#71 = CARTESIAN_POINT ( 'NONE',  ( 0.000000000000000000, 0.000000000000000000, 5.000000000000000000 ) ) ;
#72 = FACE_OUTER_BOUND ( 'NONE', #179, .T. ) ;
#73 = CARTESIAN_POINT ( 'NONE',  ( 0.000000000000000000, 0.000000000000000000, 255.0000000000000000 ) ) ;
#74 = PLANE ( 'NONE',  #247 ) ;
#75 = TOROIDAL_SURFACE ( 'NONE', #264, 3.700000000000000178, 0.2000000000000000111 ) ;
#76 = LOCAL_TIME ( 12, 7, 10.00000000000000000, #9 ) ;
#77 = COORDINATED_UNIVERSAL_TIME_OFFSET ( 1, 0, .AHEAD. ) ;
#78 = APPLICATION_CONTEXT ( 'configuration controlled 3d designs of mechanical parts and assemblies' ) ;
#79 = PLANE ( 'NONE',  #302 ) ;
#80 = ADVANCED_BREP_SHAPE_REPRESENTATION ( '6134', ( #111, #143 ), #11 ) ;
#81 = EDGE_LOOP ( 'NONE', ( #34, #265, #39, #59 ) ) ;
#82 = VERTEX_POINT ( 'NONE', #168 ) ;
#83 = PERSON_AND_ORGANIZATION ( #142, #174 ) ;
#84 = CIRCLE ( 'NONE', #57, 3.500000000000000000 ) ;
#85 = VERTEX_POINT ( 'NONE', #234 ) ;
#86 = PERSON_AND_ORGANIZATION_ROLE ( 'creator' ) ;
#87 = AXIS2_PLACEMENT_3D ( 'NONE', #88, #181, #42 ) ;
#88 = CARTESIAN_POINT ( 'NONE',  ( 0.000000000000000000, 0.000000000000000000, 0.000000000000000000 ) ) ;
#89 = CARTESIAN_POINT ( 'NONE',  ( 0.000000000000000000, 0.000000000000000000, 255.0000000000000000 ) ) ;
#90 = DIRECTION ( 'NONE',  ( 1.224646799147353207E-16, 1.000000000000000000, -0.000000000000000000 ) ) ;
#91 = DIRECTION ( 'NONE',  ( -0.000000000000000000, -0.000000000000000000, -1.000000000000000000 ) ) ;
#92 = CARTESIAN_POINT ( 'NONE',  ( 0.000000000000000000, 0.000000000000000000, 5.200000000000009948 ) ) ;
#93 = AXIS2_PLACEMENT_3D ( 'NONE', #23, #305, #46 ) ;
#94 = CARTESIAN_POINT ( 'NONE',  ( 0.000000000000000000, 0.000000000000000000, 5.200000000000009948 ) ) ;
#95 = DIRECTION ( 'NONE',  ( 1.000000000000000000, 0.000000000000000000, 0.000000000000000000 ) ) ;
#96 = ADVANCED_FACE ( 'NONE', ( #45, #138 ), #65, .T. ) ;
#97 = FACE_OUTER_BOUND ( 'NONE', #294, .T. ) ;
#98 = CARTESIAN_POINT ( 'NONE',  ( 0.000000000000000000, 0.000000000000000000, 0.000000000000000000 ) ) ;
#99 = CARTESIAN_POINT ( 'NONE',  ( -3.500000000000000000, 0.000000000000000000, 255.0000000000000000 ) ) ;
#100 = APPROVAL_PERSON_ORGANIZATION ( #300, #133, #175 ) ;
#101 = ORIENTED_EDGE ( 'NONE', *, *, #200, .T. ) ;
#102 = ORIENTED_EDGE ( 'NONE', *, *, #148, .F. ) ;
#103 = ORIENTED_EDGE ( 'NONE', *, *, #64, .F. ) ;
#104 = CC_DESIGN_DATE_AND_TIME_ASSIGNMENT ( #108, #112, ( #155 ) ) ;
#105 = DATE_AND_TIME ( #22, #76 ) ;
#106 = LOCAL_TIME ( 12, 7, 10.00000000000000000, #58 ) ;
#107 = VERTEX_POINT ( 'NONE', #208 ) ;
#108 = DATE_AND_TIME ( #159, #21 ) ;
#109 = VERTEX_POINT ( 'NONE', #144 ) ;
#110 = CARTESIAN_POINT ( 'NONE',  ( 0.000000000000000000, 0.000000000000000000, 5.000000000000000000 ) ) ;
#111 = MANIFOLD_SOLID_BREP ( 'Zaoblit1', #196 ) ;
#112 = DATE_TIME_ROLE ( 'classification_date' ) ;
#113 = CIRCLE ( 'NONE', #299, 3.500000000000000000 ) ;
#114 = DIRECTION ( 'NONE',  ( 0.000000000000000000, -1.000000000000000000, 0.000000000000000000 ) ) ;
#115 = CARTESIAN_POINT ( 'NONE',  ( 6.000000000000000888, 7.347880794884120722E-16, 5.000000000000000000 ) ) ;
#116 = EDGE_CURVE ( 'NONE', #197, #36, #303, .T. ) ;
#117 = CARTESIAN_POINT ( 'NONE',  ( -3.700000000000000178, 4.531193156845206201E-16, 5.200000000000009948 ) ) ;
#118 = DIRECTION ( 'NONE',  ( 0.000000000000000000, 0.000000000000000000, 1.000000000000000000 ) ) ;
#119 = DIRECTION ( 'NONE',  ( 0.000000000000000000, 0.000000000000000000, 1.000000000000000000 ) ) ;
#120 = DIRECTION ( 'NONE',  ( -1.000000000000000000, 0.000000000000000000, 0.000000000000000000 ) ) ;
#121 = AXIS2_PLACEMENT_3D ( 'NONE', #216, #285, #120 ) ;
#122 = CIRCLE ( 'NONE', #283, 3.500000000000000000 ) ;
#123 = DIRECTION ( 'NONE',  ( 1.000000000000000000, 0.000000000000000000, 0.000000000000000000 ) ) ;
#124 = AXIS2_PLACEMENT_3D ( 'NONE', #255, #281, #146 ) ;
#125 = APPLICATION_PROTOCOL_DEFINITION ( 'international standard', 'config_control_design', 1994, #127 ) ;
#126 = ORIENTED_EDGE ( 'NONE', *, *, #249, .T. ) ;
#127 = APPLICATION_CONTEXT ( 'configuration controlled 3d designs of mechanical parts and assemblies' ) ;
#128 = DESIGN_CONTEXT ( 'detailed design', #127, 'design' ) ;
#129 = AXIS2_PLACEMENT_3D ( 'NONE', #272, #114, #63 ) ;
#130 = ORIENTED_EDGE ( 'NONE', *, *, #222, .T. ) ;
#131 = APPROVAL ( #43, 'NEURÈENÝ' ) ;
#132 = ORIENTED_EDGE ( 'NONE', *, *, #156, .T. ) ;
#133 = APPROVAL ( #293, 'NEURÈENÝ' ) ;
#134 = EDGE_LOOP ( 'NONE', ( #263, #153, #101, #55 ) ) ;
#135 = CALENDAR_DATE ( 2022, 7, 7 ) ;
#136 = EDGE_LOOP ( 'NONE', ( #158, #6, #32, #224 ) ) ;
#137 = PERSON_AND_ORGANIZATION ( #142, #174 ) ;
#138 = FACE_OUTER_BOUND ( 'NONE', #160, .T. ) ;
#139 = AXIS2_PLACEMENT_3D ( 'NONE', #117, #90, #48 ) ;
#140 = DIRECTION ( 'NONE',  ( 0.000000000000000000, 0.000000000000000000, 1.000000000000000000 ) ) ;
#141 = APPROVAL_ROLE ( '' ) ;
#142 = PERSON ( 'NEURÈENÝ', 'NEURÈENÝ', 'NEURÈENÝ', ('NEURÈENÝ'), ('NEURÈENÝ'), ('NEURÈENÝ') ) ;
#143 = AXIS2_PLACEMENT_3D ( 'NONE', #98, #288, #218 ) ;
#144 = CARTESIAN_POINT ( 'NONE',  ( 6.000000000000000888, 7.347880794884120722E-16, 0.000000000000000000 ) ) ;
#145 = CYLINDRICAL_SURFACE ( 'NONE', #17, 6.000000000000000888 ) ;
#146 = DIRECTION ( 'NONE',  ( 1.000000000000000000, 0.000000000000000000, 0.000000000000000000 ) ) ;
#147 = CARTESIAN_POINT ( 'NONE',  ( 3.700000000000000178, 0.000000000000000000, 5.000000000000005329 ) ) ;
#148 = EDGE_CURVE ( 'NONE', #82, #85, #192, .T. ) ;
#149 = DIRECTION ( 'NONE',  ( -0.000000000000000000, -0.000000000000000000, -1.000000000000000000 ) ) ;
#150 = VECTOR ( 'NONE', #1, 1000.000000000000000 ) ;
#151 = PRODUCT_DEFINITION_SHAPE ( 'NONE', 'NONE',  #171 ) ;
#152 = CALENDAR_DATE ( 2022, 7, 7 ) ;
#153 = ORIENTED_EDGE ( 'NONE', *, *, #69, .T. ) ;
#154 = CIRCLE ( 'NONE', #10, 6.000000000000000888 ) ;
#155 = SECURITY_CLASSIFICATION ( '', '', #37 ) ;
#156 = EDGE_CURVE ( 'NONE', #198, #82, #84, .T. ) ;
#157 = CC_DESIGN_DATE_AND_TIME_ASSIGNMENT ( #267, #271, ( #171 ) ) ;
#158 = ORIENTED_EDGE ( 'NONE', *, *, #69, .F. ) ;
#159 = CALENDAR_DATE ( 2022, 7, 7 ) ;
#160 = EDGE_LOOP ( 'NONE', ( #292, #177 ) ) ;
#161 = DIRECTION ( 'NONE',  ( 1.000000000000000000, 0.000000000000000000, 0.000000000000000000 ) ) ;
#162 = DIRECTION ( 'NONE',  ( 0.000000000000000000, 0.000000000000000000, 1.000000000000000000 ) ) ;
#163 = CARTESIAN_POINT ( 'NONE',  ( 0.000000000000000000, 0.000000000000000000, 0.000000000000000000 ) ) ;
#164 = AXIS2_PLACEMENT_3D ( 'NONE', #217, #237, #306 ) ;
#165 = CC_DESIGN_PERSON_AND_ORGANIZATION_ASSIGNMENT ( #83, #204, ( #3 ) ) ;
#166 = LOCAL_TIME ( 12, 7, 10.00000000000000000, #273 ) ;
#167 = CARTESIAN_POINT ( 'NONE',  ( 3.500000000000000000, 4.286263797015736595E-16, 255.0000000000000000 ) ) ;
#168 = CARTESIAN_POINT ( 'NONE',  ( -3.500000000000000000, 0.000000000000000000, 5.200000000000009948 ) ) ;
#169 = DIRECTION ( 'NONE',  ( 1.000000000000000000, 0.000000000000000000, 0.000000000000000000 ) ) ;
#170 = DIRECTION ( 'NONE',  ( 0.000000000000000000, 0.000000000000000000, 1.000000000000000000 ) ) ;
#171 = PRODUCT_DEFINITION ( 'NEZNÁMÝ', '', #3, #128 ) ;
#172 = ADVANCED_FACE ( 'NONE', ( #226 ), #307, .F. ) ;
#173 = ORIENTED_EDGE ( 'NONE', *, *, #27, .F. ) ;
#174 = ORGANIZATION ( 'NEURÈENÝ', 'NEURÈENÝ', '' ) ;
#175 = APPROVAL_ROLE ( '' ) ;
#176 = EDGE_CURVE ( 'NONE', #197, #107, #47, .T. ) ;
#177 = ORIENTED_EDGE ( 'NONE', *, *, #290, .T. ) ;
#178 = AXIS2_PLACEMENT_3D ( 'NONE', #210, #298, #161 ) ;
#179 = EDGE_LOOP ( 'NONE', ( #56, #296, #132, #202 ) ) ;
#180 = CC_DESIGN_APPROVAL ( #133, ( #155 ) ) ;
#181 = DIRECTION ( 'NONE',  ( 0.000000000000000000, 0.000000000000000000, 1.000000000000000000 ) ) ;
#182 = DATE_AND_TIME ( #152, #166 ) ;
#183 = CARTESIAN_POINT ( 'NONE',  ( 0.000000000000000000, 0.000000000000000000, 5.000000000000000000 ) ) ;
#184 = DIRECTION ( 'NONE',  ( 1.000000000000000000, 0.000000000000000000, 0.000000000000000000 ) ) ;
#185 = CC_DESIGN_APPROVAL ( #131, ( #171 ) ) ;
#186 = CYLINDRICAL_SURFACE ( 'NONE', #235, 3.500000000000000000 ) ;
#187 = CARTESIAN_POINT ( 'NONE',  ( 0.000000000000000000, 0.000000000000000000, 5.000000000000000000 ) ) ;
#188 = PRODUCT_RELATED_PRODUCT_CATEGORY ( 'detail', '', ( #190 ) ) ;
#189 = DIRECTION ( 'NONE',  ( 0.000000000000000000, 0.000000000000000000, 1.000000000000000000 ) ) ;
#190 = PRODUCT ( '6134', '6134', '', ( #239 ) ) ;
#191 = CARTESIAN_POINT ( 'NONE',  ( 3.500000000000000000, 4.286263797015736595E-16, 255.0000000000000000 ) ) ;
#192 = CIRCLE ( 'NONE', #139, 0.2000000000000000944 ) ;
#193 = DIRECTION ( 'NONE',  ( -1.000000000000000000, 0.000000000000000000, 0.000000000000000000 ) ) ;
#194 = ADVANCED_FACE ( 'NONE', ( #26 ), #186, .T. ) ;
#195 = EDGE_LOOP ( 'NONE', ( #103, #12, #16, #126 ) ) ;
#196 = CLOSED_SHELL ( 'NONE', ( #262, #233, #295, #15, #96, #7, #194, #275, #172 ) ) ;
#197 = VERTEX_POINT ( 'NONE', #248 ) ;
#198 = VERTEX_POINT ( 'NONE', #18 ) ;
#199 = PERSON_AND_ORGANIZATION_ROLE ( 'classification_officer' ) ;
#200 = EDGE_CURVE ( 'NONE', #109, #36, #253, .T. ) ;
#201 = ORIENTED_EDGE ( 'NONE', *, *, #27, .T. ) ;
#202 = ORIENTED_EDGE ( 'NONE', *, *, #287, .F. ) ;
#203 = DATE_AND_TIME ( #135, #50 ) ;
#204 = PERSON_AND_ORGANIZATION_ROLE ( 'design_supplier' ) ;
#205 = CIRCLE ( 'NONE', #129, 0.1999999999999996503 ) ;
#206 = DIRECTION ( 'NONE',  ( -0.000000000000000000, -0.000000000000000000, -1.000000000000000000 ) ) ;
#207 = CC_DESIGN_PERSON_AND_ORGANIZATION_ASSIGNMENT ( #137, #86, ( #171 ) ) ;
#208 = CARTESIAN_POINT ( 'NONE',  ( 6.000000000000000888, 7.347880794884120722E-16, 5.000000000000000000 ) ) ;
#209 = AXIS2_PLACEMENT_3D ( 'NONE', #187, #252, #66 ) ;
#210 = CARTESIAN_POINT ( 'NONE',  ( 0.000000000000000000, 0.000000000000000000, 5.000000000000000000 ) ) ;
#211 = CIRCLE ( 'NONE', #164, 3.500000000000000000 ) ;
#212 = EDGE_CURVE ( 'NONE', #198, #266, #205, .T. ) ;
#213 = CC_DESIGN_APPROVAL ( #67, ( #3 ) ) ;
#214 = CARTESIAN_POINT ( 'NONE',  ( -6.000000000000000888, 0.000000000000000000, 0.000000000000000000 ) ) ;
#215 = DIRECTION ( 'NONE',  ( 1.000000000000000000, 0.000000000000000000, 0.000000000000000000 ) ) ;
#216 = CARTESIAN_POINT ( 'NONE',  ( 0.000000000000000000, 0.000000000000000000, 255.0000000000000000 ) ) ;
#217 = CARTESIAN_POINT ( 'NONE',  ( 0.000000000000000000, 0.000000000000000000, 5.200000000000009948 ) ) ;
#218 = DIRECTION ( 'NONE',  ( 1.000000000000000000, 0.000000000000000000, 0.000000000000000000 ) ) ;
#219 = EDGE_CURVE ( 'NONE', #244, #221, #113, .T. ) ;
#220 = ORIENTED_EDGE ( 'NONE', *, *, #44, .T. ) ;
#221 = VERTEX_POINT ( 'NONE', #99 ) ;
#222 = EDGE_CURVE ( 'NONE', #221, #244, #122, .T. ) ;
#223 = CALENDAR_DATE ( 2022, 7, 7 ) ;
#224 = ORIENTED_EDGE ( 'NONE', *, *, #228, .T. ) ;
#225 = EDGE_LOOP ( 'NONE', ( #220, #201 ) ) ;
#226 = FACE_OUTER_BOUND ( 'NONE', #8, .T. ) ;
#227 = CC_DESIGN_PERSON_AND_ORGANIZATION_ASSIGNMENT ( #256, #49, ( #190 ) ) ;
#228 = EDGE_CURVE ( 'NONE', #36, #109, #277, .T. ) ;
#229 = CARTESIAN_POINT ( 'NONE',  ( 0.000000000000000000, 0.000000000000000000, 255.0000000000000000 ) ) ;
#230 = PERSON_AND_ORGANIZATION_ROLE ( 'creator' ) ;
#231 = CARTESIAN_POINT ( 'NONE',  ( -6.000000000000000888, 0.000000000000000000, 5.000000000000000000 ) ) ;
#232 = DIRECTION ( 'NONE',  ( 1.000000000000000000, 0.000000000000000000, -0.000000000000000000 ) ) ;
#233 = ADVANCED_FACE ( 'NONE', ( #72 ), #52, .T. ) ;
#234 = CARTESIAN_POINT ( 'NONE',  ( -3.700000000000000178, 4.531193156845206201E-16, 5.000000000000005329 ) ) ;
#235 = AXIS2_PLACEMENT_3D ( 'NONE', #229, #280, #68 ) ;
#236 = CARTESIAN_POINT ( 'NONE',  ( 0.000000000000000000, 0.000000000000000000, 5.000000000000000000 ) ) ;
#237 = DIRECTION ( 'NONE',  ( 0.000000000000000000, 0.000000000000000000, 1.000000000000000000 ) ) ;
#238 = CARTESIAN_POINT ( 'NONE',  ( -3.500000000000000000, 0.000000000000000000, 255.0000000000000000 ) ) ;
#239 = MECHANICAL_CONTEXT ( 'NONE', #78, 'mechanical' ) ;
#240 = PERSON_AND_ORGANIZATION ( #142, #174 ) ;
#241 = ORIENTED_EDGE ( 'NONE', *, *, #219, .T. ) ;
#242 = ORIENTED_EDGE ( 'NONE', *, *, #212, .T. ) ;
#243 = ORIENTED_EDGE ( 'NONE', *, *, #200, .F. ) ;
#244 = VERTEX_POINT ( 'NONE', #191 ) ;
#245 = PERSON_AND_ORGANIZATION ( #142, #174 ) ;
#246 = FACE_OUTER_BOUND ( 'NONE', #33, .T. ) ;
#247 = AXIS2_PLACEMENT_3D ( 'NONE', #73, #170, #30 ) ;
#248 = CARTESIAN_POINT ( 'NONE',  ( -6.000000000000000888, 0.000000000000000000, 5.000000000000000000 ) ) ;
#249 = EDGE_CURVE ( 'NONE', #82, #198, #211, .T. ) ;
#250 = DIRECTION ( 'NONE',  ( 1.000000000000000000, 0.000000000000000000, 0.000000000000000000 ) ) ;
#251 = APPROVAL_STATUS ( 'not_yet_approved' ) ;
#252 = DIRECTION ( 'NONE',  ( -0.000000000000000000, -0.000000000000000000, -1.000000000000000000 ) ) ;
#253 = CIRCLE ( 'NONE', #87, 6.000000000000000888 ) ;
#254 = DIRECTION ( 'NONE',  ( -0.000000000000000000, -0.000000000000000000, -1.000000000000000000 ) ) ;
#255 = CARTESIAN_POINT ( 'NONE',  ( 0.000000000000000000, 0.000000000000000000, 5.200000000000009948 ) ) ;
#256 = PERSON_AND_ORGANIZATION ( #142, #174 ) ;
#257 = APPLICATION_PROTOCOL_DEFINITION ( 'international standard', 'config_control_design', 1994, #78 ) ;
#258 = LINE ( 'NONE', #238, #150 ) ;
#259 = CARTESIAN_POINT ( 'NONE',  ( 0.000000000000000000, 0.000000000000000000, 0.000000000000000000 ) ) ;
#260 =( LENGTH_UNIT ( ) NAMED_UNIT ( * ) SI_UNIT ( .MILLI., .METRE. ) );
#261 = CC_DESIGN_SECURITY_CLASSIFICATION ( #155, ( #3 ) ) ;
#262 = ADVANCED_FACE ( 'NONE', ( #70 ), #75, .F. ) ;
#263 = ORIENTED_EDGE ( 'NONE', *, *, #290, .F. ) ;
#264 = AXIS2_PLACEMENT_3D ( 'NONE', #94, #29, #215 ) ;
#265 = ORIENTED_EDGE ( 'NONE', *, *, #148, .T. ) ;
#266 = VERTEX_POINT ( 'NONE', #147 ) ;
#267 = DATE_AND_TIME ( #223, #106 ) ;
#268 = VECTOR ( 'NONE', #254, 1000.000000000000000 ) ;
#269 = ORIENTED_EDGE ( 'NONE', *, *, #156, .F. ) ;
#270 = APPROVAL_DATE_TIME ( #203, #133 ) ;
#271 = DATE_TIME_ROLE ( 'creation_date' ) ;
#272 = CARTESIAN_POINT ( 'NONE',  ( 3.700000000000000178, 0.000000000000000000, 5.200000000000009948 ) ) ;
#273 = COORDINATED_UNIVERSAL_TIME_OFFSET ( 1, 0, .AHEAD. ) ;
#274 = DIRECTION ( 'NONE',  ( -1.000000000000000000, 0.000000000000000000, 0.000000000000000000 ) ) ;
#275 = ADVANCED_FACE ( 'NONE', ( #97 ), #74, .T. ) ;
#276 = DIRECTION ( 'NONE',  ( 0.000000000000000000, 0.000000000000000000, 1.000000000000000000 ) ) ;
#277 = CIRCLE ( 'NONE', #61, 6.000000000000000888 ) ;
#278 = APPROVAL_PERSON_ORGANIZATION ( #245, #67, #31 ) ;
#279 = CC_DESIGN_PERSON_AND_ORGANIZATION_ASSIGNMENT ( #62, #199, ( #155 ) ) ;
#280 = DIRECTION ( 'NONE',  ( -0.000000000000000000, -0.000000000000000000, -1.000000000000000000 ) ) ;
#281 = DIRECTION ( 'NONE',  ( 0.000000000000000000, 0.000000000000000000, 1.000000000000000000 ) ) ;
#282 = CARTESIAN_POINT ( 'NONE',  ( 0.000000000000000000, 0.000000000000000000, 255.0000000000000000 ) ) ;
#283 = AXIS2_PLACEMENT_3D ( 'NONE', #282, #28, #169 ) ;
#284 = FACE_OUTER_BOUND ( 'NONE', #134, .T. ) ;
#285 = DIRECTION ( 'NONE',  ( -0.000000000000000000, -0.000000000000000000, -1.000000000000000000 ) ) ;
#286 = VECTOR ( 'NONE', #91, 1000.000000000000000 ) ;
#287 = EDGE_CURVE ( 'NONE', #221, #82, #258, .T. ) ;
#288 = DIRECTION ( 'NONE',  ( 0.000000000000000000, 0.000000000000000000, 1.000000000000000000 ) ) ;
#289 = ORIENTED_EDGE ( 'NONE', *, *, #228, .F. ) ;
#290 = EDGE_CURVE ( 'NONE', #107, #197, #154, .T. ) ;
#291 = UNCERTAINTY_MEASURE_WITH_UNIT (LENGTH_MEASURE( 1.000000000000000082E-05 ), #260, 'distance_accuracy_value', 'NONE');
#292 = ORIENTED_EDGE ( 'NONE', *, *, #176, .T. ) ;
#293 = APPROVAL_STATUS ( 'not_yet_approved' ) ;
#294 = EDGE_LOOP ( 'NONE', ( #130, #241 ) ) ;
#295 = ADVANCED_FACE ( 'NONE', ( #284 ), #53, .T. ) ;
#296 = ORIENTED_EDGE ( 'NONE', *, *, #64, .T. ) ;
#297 = COORDINATED_UNIVERSAL_TIME_OFFSET ( 1, 0, .AHEAD. ) ;
#298 = DIRECTION ( 'NONE',  ( 0.000000000000000000, 0.000000000000000000, 1.000000000000000000 ) ) ;
#299 = AXIS2_PLACEMENT_3D ( 'NONE', #89, #162, #250 ) ;
#300 = PERSON_AND_ORGANIZATION ( #142, #174 ) ;
#301 = LINE ( 'NONE', #167, #268 ) ;
#302 = AXIS2_PLACEMENT_3D ( 'NONE', #163, #140, #304 ) ;
#303 = LINE ( 'NONE', #231, #5 ) ;
#304 = DIRECTION ( 'NONE',  ( 1.000000000000000000, 0.000000000000000000, -0.000000000000000000 ) ) ;
#305 = DIRECTION ( 'NONE',  ( -0.000000000000000000, -0.000000000000000000, -1.000000000000000000 ) ) ;
#306 = DIRECTION ( 'NONE',  ( 1.000000000000000000, 0.000000000000000000, 0.000000000000000000 ) ) ;
#307 = TOROIDAL_SURFACE ( 'NONE', #124, 3.700000000000000178, 0.2000000000000000111 ) ;
ENDSEC;
END-ISO-10303-21;
