ISO-10303-21;
HEADER;
FILE_DESCRIPTION (( 'STEP AP203' ),
    '1' );
FILE_NAME ('71c8.STEP',
    '2022-07-07T09:33:24',
    ( '' ),
    ( '' ),
    'SwSTEP 2.0',
    'SolidWorks 2019',
    '' );
FILE_SCHEMA (( 'CONFIG_CONTROL_DESIGN' ));
ENDSEC;

DATA;
#1 = DIRECTION ( 'NONE',  ( -0.000000000000000000, -0.000000000000000000, -1.000000000000000000 ) ) ;
#2 = TOROIDAL_SURFACE ( 'NONE', #207, 10.20000000000000107, 0.2000000000000000111 ) ;
#3 = CARTESIAN_POINT ( 'NONE',  ( -13.00000000000000178, 0.000000000000000000, 0.000000000000000000 ) ) ;
#4 = AXIS2_PLACEMENT_3D ( 'NONE', #163, #6, #26 ) ;
#5 = DIRECTION ( 'NONE',  ( -1.000000000000000000, 0.000000000000000000, 0.000000000000000000 ) ) ;
#6 = DIRECTION ( 'NONE',  ( 0.000000000000000000, 0.000000000000000000, 1.000000000000000000 ) ) ;
#7 = COORDINATED_UNIVERSAL_TIME_OFFSET ( 1, 0, .AHEAD. ) ;
#8 = DIRECTION ( 'NONE',  ( 0.000000000000000000, 0.000000000000000000, -1.000000000000000000 ) ) ;
#9 = CARTESIAN_POINT ( 'NONE',  ( 0.000000000000000000, 0.000000000000000000, 0.000000000000000000 ) ) ;
#10 = ORIENTED_EDGE ( 'NONE', *, *, #188, .T. ) ;
#11 = VERTEX_POINT ( 'NONE', #133 ) ;
#12 = VERTEX_POINT ( 'NONE', #34 ) ;
#13 = ORIENTED_EDGE ( 'NONE', *, *, #83, .T. ) ;
#14 = ORIENTED_EDGE ( 'NONE', *, *, #167, .T. ) ;
#15 = APPROVAL_PERSON_ORGANIZATION ( #255, #65, #256 ) ;
#16 = DIRECTION ( 'NONE',  ( 1.000000000000000000, 0.000000000000000000, -0.000000000000000000 ) ) ;
#17 = AXIS2_PLACEMENT_3D ( 'NONE', #249, #224, #16 ) ;
#18 = APPROVAL_PERSON_ORGANIZATION ( #21, #172, #92 ) ;
#19 = LINE ( 'NONE', #154, #48 ) ;
#20 = SECURITY_CLASSIFICATION ( '', '', #264 ) ;
#21 = PERSON_AND_ORGANIZATION ( #44, #291 ) ;
#22 = PRODUCT_RELATED_PRODUCT_CATEGORY ( 'detail', '', ( #305 ) ) ;
#23 = DIRECTION ( 'NONE',  ( 0.000000000000000000, 0.000000000000000000, 1.000000000000000000 ) ) ;
#24 = DIRECTION ( 'NONE',  ( -0.000000000000000000, -0.000000000000000000, -1.000000000000000000 ) ) ;
#25 = CC_DESIGN_APPROVAL ( #172, ( #117 ) ) ;
#26 = DIRECTION ( 'NONE',  ( 1.000000000000000000, 0.000000000000000000, 0.000000000000000000 ) ) ;
#27 = CALENDAR_DATE ( 2022, 7, 7 ) ;
#28 = EDGE_CURVE ( 'NONE', #269, #148, #120, .T. ) ;
#29 = AXIS2_PLACEMENT_3D ( 'NONE', #260, #138, #101 ) ;
#30 = CARTESIAN_POINT ( 'NONE',  ( 0.000000000000000000, 0.000000000000000000, 8.000000000000000000 ) ) ;
#31 = AXIS2_PLACEMENT_3D ( 'NONE', #306, #68, #230 ) ;
#32 = ORIENTED_EDGE ( 'NONE', *, *, #238, .F. ) ;
#33 = ORIENTED_EDGE ( 'NONE', *, *, #167, .F. ) ;
#34 = CARTESIAN_POINT ( 'NONE',  ( -10.00000000000000000, 0.000000000000000000, 8.199999999999985079 ) ) ;
#35 = DIRECTION ( 'NONE',  ( -0.000000000000000000, -0.000000000000000000, -1.000000000000000000 ) ) ;
#36 = ORIENTED_EDGE ( 'NONE', *, *, #161, .F. ) ;
#37 = CLOSED_SHELL ( 'NONE', ( #132, #56, #286, #99, #102, #225, #94, #88, #158 ) ) ;
#38 = AXIS2_PLACEMENT_3D ( 'NONE', #124, #121, #214 ) ;
#39 = CARTESIAN_POINT ( 'NONE',  ( 0.000000000000000000, 0.000000000000000000, 808.0000000000000000 ) ) ;
#40 = AXIS2_PLACEMENT_3D ( 'NONE', #105, #86, #150 ) ;
#41 = CALENDAR_DATE ( 2022, 7, 7 ) ;
#42 = CIRCLE ( 'NONE', #4, 10.00000000000000000 ) ;
#43 = DIRECTION ( 'NONE',  ( 0.000000000000000000, 0.000000000000000000, 1.000000000000000000 ) ) ;
#44 = PERSON ( 'NEURÈENÝ', 'NEURÈENÝ', 'NEURÈENÝ', ('NEURÈENÝ'), ('NEURÈENÝ'), ('NEURÈENÝ') ) ;
#45 = CARTESIAN_POINT ( 'NONE',  ( -10.20000000000000107, 1.249139735130300365E-15, 8.199999999999985079 ) ) ;
#46 = CARTESIAN_POINT ( 'NONE',  ( 0.000000000000000000, 0.000000000000000000, 8.000000000000000000 ) ) ;
#47 = AXIS2_PLACEMENT_3D ( 'NONE', #39, #35, #108 ) ;
#48 = VECTOR ( 'NONE', #114, 1000.000000000000000 ) ;
#49 =( NAMED_UNIT ( * ) PLANE_ANGLE_UNIT ( ) SI_UNIT ( $, .RADIAN. ) );
#50 = CC_DESIGN_PERSON_AND_ORGANIZATION_ASSIGNMENT ( #278, #137, ( #305 ) ) ;
#51 = COORDINATED_UNIVERSAL_TIME_OFFSET ( 1, 0, .AHEAD. ) ;
#52 = CARTESIAN_POINT ( 'NONE',  ( 10.20000000000000107, 0.000000000000000000, 7.999999999999992895 ) ) ;
#53 = PERSON_AND_ORGANIZATION ( #44, #291 ) ;
#54 = CARTESIAN_POINT ( 'NONE',  ( 0.000000000000000000, 0.000000000000000000, 808.0000000000000000 ) ) ;
#55 = CYLINDRICAL_SURFACE ( 'NONE', #215, 10.00000000000000000 ) ;
#56 = ADVANCED_FACE ( 'NONE', ( #174 ), #173, .T. ) ;
#57 = CALENDAR_DATE ( 2022, 7, 7 ) ;
#58 = LINE ( 'NONE', #241, #160 ) ;
#59 = EDGE_LOOP ( 'NONE', ( #33, #248, #246, #149 ) ) ;
#60 = PRODUCT_DEFINITION_FORMATION_WITH_SPECIFIED_SOURCE ( 'LIBOVOLNÝ', '', #305, .NOT_KNOWN. ) ;
#61 = EDGE_LOOP ( 'NONE', ( #62, #170 ) ) ;
#62 = ORIENTED_EDGE ( 'NONE', *, *, #299, .T. ) ;
#63 = PLANE ( 'NONE',  #17 ) ;
#64 = CC_DESIGN_SECURITY_CLASSIFICATION ( #20, ( #60 ) ) ;
#65 = APPROVAL ( #70, 'NEURÈENÝ' ) ;
#66 = APPLICATION_PROTOCOL_DEFINITION ( 'international standard', 'config_control_design', 1994, #89 ) ;
#67 = DIRECTION ( 'NONE',  ( 1.000000000000000000, 0.000000000000000000, 0.000000000000000000 ) ) ;
#68 = DIRECTION ( 'NONE',  ( 0.000000000000000000, 0.000000000000000000, 1.000000000000000000 ) ) ;
#69 = CC_DESIGN_PERSON_AND_ORGANIZATION_ASSIGNMENT ( #179, #283, ( #117 ) ) ;
#70 = APPROVAL_STATUS ( 'not_yet_approved' ) ;
#71 = CIRCLE ( 'NONE', #180, 13.00000000000000178 ) ;
#72 = CIRCLE ( 'NONE', #243, 0.2000000000000005107 ) ;
#73 = LINE ( 'NONE', #235, #202 ) ;
#74 = DATE_AND_TIME ( #57, #165 ) ;
#75 = DIRECTION ( 'NONE',  ( 1.000000000000000000, 0.000000000000000000, 0.000000000000000000 ) ) ;
#76 = PERSON_AND_ORGANIZATION ( #44, #291 ) ;
#77 = TOROIDAL_SURFACE ( 'NONE', #226, 10.20000000000000107, 0.2000000000000000111 ) ;
#78 = CC_DESIGN_DATE_AND_TIME_ASSIGNMENT ( #288, #285, ( #20 ) ) ;
#79 = LINE ( 'NONE', #140, #228 ) ;
#80 = CIRCLE ( 'NONE', #31, 13.00000000000000178 ) ;
#81 = CYLINDRICAL_SURFACE ( 'NONE', #197, 13.00000000000000178 ) ;
#82 = CARTESIAN_POINT ( 'NONE',  ( 0.000000000000000000, 0.000000000000000000, 8.000000000000000000 ) ) ;
#83 = EDGE_CURVE ( 'NONE', #131, #196, #200, .T. ) ;
#84 = EDGE_LOOP ( 'NONE', ( #217, #14 ) ) ;
#85 = CIRCLE ( 'NONE', #38, 10.00000000000000000 ) ;
#86 = DIRECTION ( 'NONE',  ( 0.000000000000000000, 0.000000000000000000, 1.000000000000000000 ) ) ;
#87 = CARTESIAN_POINT ( 'NONE',  ( 0.000000000000000000, 0.000000000000000000, 8.000000000000000000 ) ) ;
#88 = ADVANCED_FACE ( 'NONE', ( #275 ), #63, .T. ) ;
#89 = APPLICATION_CONTEXT ( 'configuration controlled 3d designs of mechanical parts and assemblies' ) ;
#90 = DIRECTION ( 'NONE',  ( 0.000000000000000000, 0.000000000000000000, 1.000000000000000000 ) ) ;
#91 = PRODUCT_DEFINITION_SHAPE ( 'NONE', 'NONE',  #117 ) ;
#92 = APPROVAL_ROLE ( '' ) ;
#93 = CALENDAR_DATE ( 2022, 7, 7 ) ;
#94 = ADVANCED_FACE ( 'NONE', ( #301 ), #55, .T. ) ;
#95 = CARTESIAN_POINT ( 'NONE',  ( 0.000000000000000000, 0.000000000000000000, 8.199999999999985079 ) ) ;
#96 = AXIS2_PLACEMENT_3D ( 'NONE', #116, #1, #232 ) ;
#97 = CARTESIAN_POINT ( 'NONE',  ( -13.00000000000000178, 0.000000000000000000, 8.000000000000000000 ) ) ;
#98 = APPROVAL_DATE_TIME ( #74, #65 ) ;
#99 = ADVANCED_FACE ( 'NONE', ( #144 ), #81, .T. ) ;
#100 = DIRECTION ( 'NONE',  ( -0.000000000000000000, -0.000000000000000000, -1.000000000000000000 ) ) ;
#101 = DIRECTION ( 'NONE',  ( 1.000000000000000000, 0.000000000000000000, -0.000000000000000000 ) ) ;
#102 = ADVANCED_FACE ( 'NONE', ( #103, #141 ), #209, .T. ) ;
#103 = FACE_BOUND ( 'NONE', #61, .T. ) ;
#104 = EDGE_LOOP ( 'NONE', ( #129, #13 ) ) ;
#105 = CARTESIAN_POINT ( 'NONE',  ( 0.000000000000000000, 0.000000000000000000, 0.000000000000000000 ) ) ;
#106 = MANIFOLD_SOLID_BREP ( 'Zaoblit1', #37 ) ;
#107 = CC_DESIGN_APPROVAL ( #250, ( #20 ) ) ;
#108 = DIRECTION ( 'NONE',  ( -1.000000000000000000, 0.000000000000000000, 0.000000000000000000 ) ) ;
#109 = EDGE_LOOP ( 'NONE', ( #128, #192, #145, #247 ) ) ;
#110 = EDGE_CURVE ( 'NONE', #148, #269, #71, .T. ) ;
#111 = EDGE_LOOP ( 'NONE', ( #219, #272 ) ) ;
#112 = DIRECTION ( 'NONE',  ( 1.224646799147353207E-16, 1.000000000000000000, -0.000000000000000000 ) ) ;
#113 =( LENGTH_UNIT ( ) NAMED_UNIT ( * ) SI_UNIT ( .MILLI., .METRE. ) );
#114 = DIRECTION ( 'NONE',  ( -0.000000000000000000, -0.000000000000000000, -1.000000000000000000 ) ) ;
#115 = CC_DESIGN_APPROVAL ( #65, ( #60 ) ) ;
#116 = CARTESIAN_POINT ( 'NONE',  ( 0.000000000000000000, 0.000000000000000000, 8.000000000000000000 ) ) ;
#117 = PRODUCT_DEFINITION ( 'NEZNÁMÝ', '', #60, #201 ) ;
#118 = DIRECTION ( 'NONE',  ( 1.000000000000000000, 0.000000000000000000, 0.000000000000000000 ) ) ;
#119 = DIRECTION ( 'NONE',  ( 1.000000000000000000, 0.000000000000000000, 0.000000000000000000 ) ) ;
#120 = CIRCLE ( 'NONE', #40, 13.00000000000000178 ) ;
#121 = DIRECTION ( 'NONE',  ( 0.000000000000000000, 0.000000000000000000, 1.000000000000000000 ) ) ;
#122 = CC_DESIGN_DATE_AND_TIME_ASSIGNMENT ( #136, #229, ( #117 ) ) ;
#123 = FACE_OUTER_BOUND ( 'NONE', #109, .T. ) ;
#124 = CARTESIAN_POINT ( 'NONE',  ( 0.000000000000000000, 0.000000000000000000, 8.199999999999985079 ) ) ;
#125 = CARTESIAN_POINT ( 'NONE',  ( -10.20000000000000107, 1.249139735130300365E-15, 7.999999999999992895 ) ) ;
#126 = VERTEX_POINT ( 'NONE', #125 ) ;
#127 = EDGE_LOOP ( 'NONE', ( #295, #36, #220, #221 ) ) ;
#128 = ORIENTED_EDGE ( 'NONE', *, *, #188, .F. ) ;
#129 = ORIENTED_EDGE ( 'NONE', *, *, #274, .T. ) ;
#130 = EDGE_LOOP ( 'NONE', ( #271, #194, #268, #10 ) ) ;
#131 = VERTEX_POINT ( 'NONE', #216 ) ;
#132 = ADVANCED_FACE ( 'NONE', ( #123 ), #77, .F. ) ;
#133 = CARTESIAN_POINT ( 'NONE',  ( -10.00000000000000000, 0.000000000000000000, 808.0000000000000000 ) ) ;
#134 = APPROVAL_STATUS ( 'not_yet_approved' ) ;
#135 = LOCAL_TIME ( 11, 33, 24.00000000000000000, #252 ) ;
#136 = DATE_AND_TIME ( #41, #135 ) ;
#137 = PERSON_AND_ORGANIZATION_ROLE ( 'design_owner' ) ;
#138 = DIRECTION ( 'NONE',  ( 0.000000000000000000, 0.000000000000000000, 1.000000000000000000 ) ) ;
#139 = PERSON_AND_ORGANIZATION_ROLE ( 'creator' ) ;
#140 = CARTESIAN_POINT ( 'NONE',  ( 10.00000000000000000, 1.224646799147353256E-15, 808.0000000000000000 ) ) ;
#141 = FACE_OUTER_BOUND ( 'NONE', #104, .T. ) ;
#142 = DIRECTION ( 'NONE',  ( 1.000000000000000000, 0.000000000000000000, 0.000000000000000000 ) ) ;
#143 = COORDINATED_UNIVERSAL_TIME_OFFSET ( 1, 0, .AHEAD. ) ;
#144 = FACE_OUTER_BOUND ( 'NONE', #169, .T. ) ;
#145 = ORIENTED_EDGE ( 'NONE', *, *, #299, .F. ) ;
#146 = ORIENTED_EDGE ( 'NONE', *, *, #277, .T. ) ;
#147 =( GEOMETRIC_REPRESENTATION_CONTEXT ( 3 ) GLOBAL_UNCERTAINTY_ASSIGNED_CONTEXT ( ( #254 ) ) GLOBAL_UNIT_ASSIGNED_CONTEXT ( ( #113, #49, #176 ) ) REPRESENTATION_CONTEXT ( 'NONE', 'WORKASPACE' ) );
#148 = VERTEX_POINT ( 'NONE', #3 ) ;
#149 = ORIENTED_EDGE ( 'NONE', *, *, #177, .F. ) ;
#150 = DIRECTION ( 'NONE',  ( 1.000000000000000000, 0.000000000000000000, 0.000000000000000000 ) ) ;
#151 = ORIENTED_EDGE ( 'NONE', *, *, #83, .F. ) ;
#152 = DIRECTION ( 'NONE',  ( 0.000000000000000000, 0.000000000000000000, 1.000000000000000000 ) ) ;
#153 = CIRCLE ( 'NONE', #208, 10.20000000000000107 ) ;
#154 = CARTESIAN_POINT ( 'NONE',  ( -13.00000000000000178, 0.000000000000000000, 8.000000000000000000 ) ) ;
#155 = APPROVAL_DATE_TIME ( #175, #172 ) ;
#156 = AXIS2_PLACEMENT_3D ( 'NONE', #185, #186, #8 ) ;
#157 = MECHANICAL_CONTEXT ( 'NONE', #266, 'mechanical' ) ;
#158 = ADVANCED_FACE ( 'NONE', ( #166 ), #2, .F. ) ;
#159 = APPLICATION_PROTOCOL_DEFINITION ( 'international standard', 'config_control_design', 1994, #266 ) ;
#160 = VECTOR ( 'NONE', #190, 1000.000000000000000 ) ;
#161 = EDGE_CURVE ( 'NONE', #223, #12, #302, .T. ) ;
#162 = DIRECTION ( 'NONE',  ( -0.000000000000000000, -0.000000000000000000, -1.000000000000000000 ) ) ;
#163 = CARTESIAN_POINT ( 'NONE',  ( 0.000000000000000000, 0.000000000000000000, 808.0000000000000000 ) ) ;
#164 = CARTESIAN_POINT ( 'NONE',  ( 10.00000000000000000, 1.224646799147353256E-15, 8.199999999999985079 ) ) ;
#165 = LOCAL_TIME ( 11, 33, 24.00000000000000000, #51 ) ;
#166 = FACE_OUTER_BOUND ( 'NONE', #127, .T. ) ;
#167 = EDGE_CURVE ( 'NONE', #222, #11, #42, .T. ) ;
#168 = DIRECTION ( 'NONE',  ( 0.000000000000000000, 0.000000000000000000, 1.000000000000000000 ) ) ;
#169 = EDGE_LOOP ( 'NONE', ( #32, #296, #146, #245 ) ) ;
#170 = ORIENTED_EDGE ( 'NONE', *, *, #181, .T. ) ;
#171 = APPROVAL_PERSON_ORGANIZATION ( #257, #250, #212 ) ;
#172 = APPROVAL ( #134, 'NEURÈENÝ' ) ;
#173 = CYLINDRICAL_SURFACE ( 'NONE', #47, 10.00000000000000000 ) ;
#174 = FACE_OUTER_BOUND ( 'NONE', #59, .T. ) ;
#175 = DATE_AND_TIME ( #93, #183 ) ;
#176 =( NAMED_UNIT ( * ) SI_UNIT ( $, .STERADIAN. ) SOLID_ANGLE_UNIT ( ) );
#177 = EDGE_CURVE ( 'NONE', #11, #12, #73, .T. ) ;
#178 = CARTESIAN_POINT ( 'NONE',  ( 0.000000000000000000, 0.000000000000000000, 808.0000000000000000 ) ) ;
#179 = PERSON_AND_ORGANIZATION ( #44, #291 ) ;
#180 = AXIS2_PLACEMENT_3D ( 'NONE', #233, #23, #119 ) ;
#181 = EDGE_CURVE ( 'NONE', #126, #191, #153, .T. ) ;
#182 = DATE_AND_TIME ( #27, #236 ) ;
#183 = LOCAL_TIME ( 11, 33, 24.00000000000000000, #203 ) ;
#184 = DIRECTION ( 'NONE',  ( -0.000000000000000000, -0.000000000000000000, -1.000000000000000000 ) ) ;
#185 = CARTESIAN_POINT ( 'NONE',  ( 10.20000000000000107, 0.000000000000000000, 8.199999999999985079 ) ) ;
#186 = DIRECTION ( 'NONE',  ( 0.000000000000000000, -1.000000000000000000, 0.000000000000000000 ) ) ;
#187 = APPROVAL_DATE_TIME ( #182, #250 ) ;
#188 = EDGE_CURVE ( 'NONE', #12, #223, #85, .T. ) ;
#189 = PLANE ( 'NONE',  #261 ) ;
#190 = DIRECTION ( 'NONE',  ( -0.000000000000000000, -0.000000000000000000, -1.000000000000000000 ) ) ;
#191 = VERTEX_POINT ( 'NONE', #52 ) ;
#192 = ORIENTED_EDGE ( 'NONE', *, *, #307, .T. ) ;
#193 = LOCAL_TIME ( 11, 33, 24.00000000000000000, #143 ) ;
#194 = ORIENTED_EDGE ( 'NONE', *, *, #282, .F. ) ;
#195 = ORIENTED_EDGE ( 'NONE', *, *, #28, .T. ) ;
#196 = VERTEX_POINT ( 'NONE', #97 ) ;
#197 = AXIS2_PLACEMENT_3D ( 'NONE', #30, #293, #267 ) ;
#198 = FACE_OUTER_BOUND ( 'NONE', #244, .T. ) ;
#199 = DIRECTION ( 'NONE',  ( -0.000000000000000000, -0.000000000000000000, -1.000000000000000000 ) ) ;
#200 = CIRCLE ( 'NONE', #276, 13.00000000000000178 ) ;
#201 = DESIGN_CONTEXT ( 'detailed design', #89, 'design' ) ;
#202 = VECTOR ( 'NONE', #162, 1000.000000000000000 ) ;
#203 = COORDINATED_UNIVERSAL_TIME_OFFSET ( 1, 0, .AHEAD. ) ;
#204 = EDGE_CURVE ( 'NONE', #222, #223, #79, .T. ) ;
#205 = CYLINDRICAL_SURFACE ( 'NONE', #96, 13.00000000000000178 ) ;
#206 = DIRECTION ( 'NONE',  ( 1.000000000000000000, 0.000000000000000000, 0.000000000000000000 ) ) ;
#207 = AXIS2_PLACEMENT_3D ( 'NONE', #237, #211, #75 ) ;
#208 = AXIS2_PLACEMENT_3D ( 'NONE', #82, #100, #258 ) ;
#209 = PLANE ( 'NONE',  #29 ) ;
#210 = PERSON_AND_ORGANIZATION_ROLE ( 'classification_officer' ) ;
#211 = DIRECTION ( 'NONE',  ( 0.000000000000000000, 0.000000000000000000, 1.000000000000000000 ) ) ;
#212 = APPROVAL_ROLE ( '' ) ;
#213 = EDGE_CURVE ( 'NONE', #223, #191, #253, .T. ) ;
#214 = DIRECTION ( 'NONE',  ( 1.000000000000000000, 0.000000000000000000, 0.000000000000000000 ) ) ;
#215 = AXIS2_PLACEMENT_3D ( 'NONE', #54, #184, #5 ) ;
#216 = CARTESIAN_POINT ( 'NONE',  ( 13.00000000000000178, 1.592040838891559293E-15, 8.000000000000000000 ) ) ;
#217 = ORIENTED_EDGE ( 'NONE', *, *, #282, .T. ) ;
#218 = CC_DESIGN_PERSON_AND_ORGANIZATION_ASSIGNMENT ( #76, #210, ( #20 ) ) ;
#219 = ORIENTED_EDGE ( 'NONE', *, *, #110, .F. ) ;
#220 = ORIENTED_EDGE ( 'NONE', *, *, #213, .T. ) ;
#221 = ORIENTED_EDGE ( 'NONE', *, *, #181, .F. ) ;
#222 = VERTEX_POINT ( 'NONE', #289 ) ;
#223 = VERTEX_POINT ( 'NONE', #164 ) ;
#224 = DIRECTION ( 'NONE',  ( 0.000000000000000000, 0.000000000000000000, 1.000000000000000000 ) ) ;
#225 = ADVANCED_FACE ( 'NONE', ( #263 ), #189, .F. ) ;
#226 = AXIS2_PLACEMENT_3D ( 'NONE', #287, #168, #206 ) ;
#227 = CARTESIAN_POINT ( 'NONE',  ( 13.00000000000000178, 1.592040838891559293E-15, 0.000000000000000000 ) ) ;
#228 = VECTOR ( 'NONE', #24, 1000.000000000000000 ) ;
#229 = DATE_TIME_ROLE ( 'creation_date' ) ;
#230 = DIRECTION ( 'NONE',  ( 1.000000000000000000, 0.000000000000000000, 0.000000000000000000 ) ) ;
#231 = DIRECTION ( 'NONE',  ( 1.000000000000000000, 0.000000000000000000, 0.000000000000000000 ) ) ;
#232 = DIRECTION ( 'NONE',  ( -1.000000000000000000, 0.000000000000000000, 0.000000000000000000 ) ) ;
#233 = CARTESIAN_POINT ( 'NONE',  ( 0.000000000000000000, 0.000000000000000000, 0.000000000000000000 ) ) ;
#234 = PERSON_AND_ORGANIZATION ( #44, #291 ) ;
#235 = CARTESIAN_POINT ( 'NONE',  ( -10.00000000000000000, 0.000000000000000000, 808.0000000000000000 ) ) ;
#236 = LOCAL_TIME ( 11, 33, 24.00000000000000000, #7 ) ;
#237 = CARTESIAN_POINT ( 'NONE',  ( 0.000000000000000000, 0.000000000000000000, 8.199999999999985079 ) ) ;
#238 = EDGE_CURVE ( 'NONE', #131, #269, #58, .T. ) ;
#239 = SHAPE_DEFINITION_REPRESENTATION ( #91, #297 ) ;
#240 = APPROVAL_STATUS ( 'not_yet_approved' ) ;
#241 = CARTESIAN_POINT ( 'NONE',  ( 13.00000000000000178, 1.592040838891559293E-15, 8.000000000000000000 ) ) ;
#242 = ORIENTED_EDGE ( 'NONE', *, *, #238, .T. ) ;
#243 = AXIS2_PLACEMENT_3D ( 'NONE', #45, #112, #279 ) ;
#244 = EDGE_LOOP ( 'NONE', ( #151, #242, #195, #273 ) ) ;
#245 = ORIENTED_EDGE ( 'NONE', *, *, #110, .T. ) ;
#246 = ORIENTED_EDGE ( 'NONE', *, *, #161, .T. ) ;
#247 = ORIENTED_EDGE ( 'NONE', *, *, #213, .F. ) ;
#248 = ORIENTED_EDGE ( 'NONE', *, *, #204, .T. ) ;
#249 = CARTESIAN_POINT ( 'NONE',  ( 0.000000000000000000, 0.000000000000000000, 808.0000000000000000 ) ) ;
#250 = APPROVAL ( #240, 'NEURÈENÝ' ) ;
#251 = CIRCLE ( 'NONE', #262, 10.00000000000000000 ) ;
#252 = COORDINATED_UNIVERSAL_TIME_OFFSET ( 1, 0, .AHEAD. ) ;
#253 = CIRCLE ( 'NONE', #156, 0.2000000000000005107 ) ;
#254 = UNCERTAINTY_MEASURE_WITH_UNIT (LENGTH_MEASURE( 1.000000000000000082E-05 ), #113, 'distance_accuracy_value', 'NONE');
#255 = PERSON_AND_ORGANIZATION ( #44, #291 ) ;
#256 = APPROVAL_ROLE ( '' ) ;
#257 = PERSON_AND_ORGANIZATION ( #44, #291 ) ;
#258 = DIRECTION ( 'NONE',  ( 1.000000000000000000, 0.000000000000000000, 0.000000000000000000 ) ) ;
#259 = CALENDAR_DATE ( 2022, 7, 7 ) ;
#260 = CARTESIAN_POINT ( 'NONE',  ( 0.000000000000000000, 0.000000000000000000, 8.000000000000000000 ) ) ;
#261 = AXIS2_PLACEMENT_3D ( 'NONE', #9, #292, #265 ) ;
#262 = AXIS2_PLACEMENT_3D ( 'NONE', #178, #43, #231 ) ;
#263 = FACE_OUTER_BOUND ( 'NONE', #111, .T. ) ;
#264 = SECURITY_CLASSIFICATION_LEVEL ( 'unclassified' ) ;
#265 = DIRECTION ( 'NONE',  ( 1.000000000000000000, 0.000000000000000000, -0.000000000000000000 ) ) ;
#266 = APPLICATION_CONTEXT ( 'configuration controlled 3d designs of mechanical parts and assemblies' ) ;
#267 = DIRECTION ( 'NONE',  ( -1.000000000000000000, 0.000000000000000000, 0.000000000000000000 ) ) ;
#268 = ORIENTED_EDGE ( 'NONE', *, *, #177, .T. ) ;
#269 = VERTEX_POINT ( 'NONE', #227 ) ;
#270 = CIRCLE ( 'NONE', #281, 10.20000000000000107 ) ;
#271 = ORIENTED_EDGE ( 'NONE', *, *, #204, .F. ) ;
#272 = ORIENTED_EDGE ( 'NONE', *, *, #28, .F. ) ;
#273 = ORIENTED_EDGE ( 'NONE', *, *, #277, .F. ) ;
#274 = EDGE_CURVE ( 'NONE', #196, #131, #80, .T. ) ;
#275 = FACE_OUTER_BOUND ( 'NONE', #84, .T. ) ;
#276 = AXIS2_PLACEMENT_3D ( 'NONE', #87, #152, #300 ) ;
#277 = EDGE_CURVE ( 'NONE', #196, #148, #19, .T. ) ;
#278 = PERSON_AND_ORGANIZATION ( #44, #291 ) ;
#279 = DIRECTION ( 'NONE',  ( -1.000000000000000000, 1.224646799147353207E-16, 0.000000000000000000 ) ) ;
#280 = CARTESIAN_POINT ( 'NONE',  ( 0.000000000000000000, 0.000000000000000000, 0.000000000000000000 ) ) ;
#281 = AXIS2_PLACEMENT_3D ( 'NONE', #46, #199, #67 ) ;
#282 = EDGE_CURVE ( 'NONE', #11, #222, #251, .T. ) ;
#283 = PERSON_AND_ORGANIZATION_ROLE ( 'creator' ) ;
#284 = DIRECTION ( 'NONE',  ( 0.000000000000000000, 0.000000000000000000, 1.000000000000000000 ) ) ;
#285 = DATE_TIME_ROLE ( 'classification_date' ) ;
#286 = ADVANCED_FACE ( 'NONE', ( #198 ), #205, .T. ) ;
#287 = CARTESIAN_POINT ( 'NONE',  ( 0.000000000000000000, 0.000000000000000000, 8.199999999999985079 ) ) ;
#288 = DATE_AND_TIME ( #259, #193 ) ;
#289 = CARTESIAN_POINT ( 'NONE',  ( 10.00000000000000000, 1.224646799147353256E-15, 808.0000000000000000 ) ) ;
#290 = PERSON_AND_ORGANIZATION_ROLE ( 'design_supplier' ) ;
#291 = ORGANIZATION ( 'NEURÈENÝ', 'NEURÈENÝ', '' ) ;
#292 = DIRECTION ( 'NONE',  ( 0.000000000000000000, 0.000000000000000000, 1.000000000000000000 ) ) ;
#293 = DIRECTION ( 'NONE',  ( -0.000000000000000000, -0.000000000000000000, -1.000000000000000000 ) ) ;
#294 = CC_DESIGN_PERSON_AND_ORGANIZATION_ASSIGNMENT ( #234, #290, ( #60 ) ) ;
#295 = ORIENTED_EDGE ( 'NONE', *, *, #307, .F. ) ;
#296 = ORIENTED_EDGE ( 'NONE', *, *, #274, .F. ) ;
#297 = ADVANCED_BREP_SHAPE_REPRESENTATION ( '71c8', ( #106, #298 ), #147 ) ;
#298 = AXIS2_PLACEMENT_3D ( 'NONE', #280, #90, #118 ) ;
#299 = EDGE_CURVE ( 'NONE', #191, #126, #270, .T. ) ;
#300 = DIRECTION ( 'NONE',  ( 1.000000000000000000, 0.000000000000000000, 0.000000000000000000 ) ) ;
#301 = FACE_OUTER_BOUND ( 'NONE', #130, .T. ) ;
#302 = CIRCLE ( 'NONE', #304, 10.00000000000000000 ) ;
#303 = CC_DESIGN_PERSON_AND_ORGANIZATION_ASSIGNMENT ( #53, #139, ( #60 ) ) ;
#304 = AXIS2_PLACEMENT_3D ( 'NONE', #95, #284, #142 ) ;
#305 = PRODUCT ( '71c8', '71c8', '', ( #157 ) ) ;
#306 = CARTESIAN_POINT ( 'NONE',  ( 0.000000000000000000, 0.000000000000000000, 8.000000000000000000 ) ) ;
#307 = EDGE_CURVE ( 'NONE', #12, #126, #72, .T. ) ;
ENDSEC;
END-ISO-10303-21;
