ISO-10303-21;
HEADER;
FILE_DESCRIPTION (( 'STEP AP203' ),
    '1' );
FILE_NAME ('8ed3.STEP',
    '2022-07-07T10:32:24',
    ( '' ),
    ( '' ),
    'SwSTEP 2.0',
    'SolidWorks 2019',
    '' );
FILE_SCHEMA (( 'CONFIG_CONTROL_DESIGN' ));
ENDSEC;

DATA;
#1 =( NAMED_UNIT ( * ) SI_UNIT ( $, .STERADIAN. ) SOLID_ANGLE_UNIT ( ) );
#2 = PRODUCT ( '8ed3', '8ed3', '', ( #112 ) ) ;
#3 = TOROIDAL_SURFACE ( 'NONE', #17, 1.450000000000000178, 0.2000000000000000111 ) ;
#4 = CC_DESIGN_SECURITY_CLASSIFICATION ( #279, ( #69 ) ) ;
#5 = CIRCLE ( 'NONE', #294, 1.450000000000000178 ) ;
#6 = DATE_AND_TIME ( #27, #244 ) ;
#7 = PERSON_AND_ORGANIZATION ( #193, #120 ) ;
#8 = DATE_AND_TIME ( #234, #162 ) ;
#9 = EDGE_CURVE ( 'NONE', #243, #33, #133, .T. ) ;
#10 = ORIENTED_EDGE ( 'NONE', *, *, #245, .T. ) ;
#11 = ORIENTED_EDGE ( 'NONE', *, *, #269, .F. ) ;
#12 = ORIENTED_EDGE ( 'NONE', *, *, #269, .T. ) ;
#13 = ADVANCED_FACE ( 'NONE', ( #197 ), #3, .F. ) ;
#14 = VERTEX_POINT ( 'NONE', #177 ) ;
#15 = DIRECTION ( 'NONE',  ( 0.000000000000000000, 0.000000000000000000, 1.000000000000000000 ) ) ;
#16 = FACE_OUTER_BOUND ( 'NONE', #118, .T. ) ;
#17 = AXIS2_PLACEMENT_3D ( 'NONE', #62, #19, #107 ) ;
#18 = CC_DESIGN_APPROVAL ( #79, ( #69 ) ) ;
#19 = DIRECTION ( 'NONE',  ( 0.000000000000000000, 0.000000000000000000, 1.000000000000000000 ) ) ;
#20 = DIRECTION ( 'NONE',  ( 1.000000000000000000, 0.000000000000000000, 0.000000000000000000 ) ) ;
#21 = CARTESIAN_POINT ( 'NONE',  ( 0.000000000000000000, 0.000000000000000000, 502.0000000000000000 ) ) ;
#22 = DIRECTION ( 'NONE',  ( 0.000000000000000000, 0.000000000000000000, 1.000000000000000000 ) ) ;
#23 = DIRECTION ( 'NONE',  ( -0.000000000000000000, -0.000000000000000000, -1.000000000000000000 ) ) ;
#24 = EDGE_CURVE ( 'NONE', #267, #130, #39, .T. ) ;
#25 = AXIS2_PLACEMENT_3D ( 'NONE', #42, #201, #300 ) ;
#26 = FACE_OUTER_BOUND ( 'NONE', #84, .T. ) ;
#27 = CALENDAR_DATE ( 2022, 7, 7 ) ;
#28 = PERSON_AND_ORGANIZATION ( #193, #120 ) ;
#29 = AXIS2_PLACEMENT_3D ( 'NONE', #307, #257, #88 ) ;
#30 = APPROVAL_STATUS ( 'not_yet_approved' ) ;
#31 = ORIENTED_EDGE ( 'NONE', *, *, #41, .T. ) ;
#32 = EDGE_CURVE ( 'NONE', #254, #96, #144, .T. ) ;
#33 = VERTEX_POINT ( 'NONE', #44 ) ;
#34 = EDGE_CURVE ( 'NONE', #58, #116, #119, .T. ) ;
#35 = ORIENTED_EDGE ( 'NONE', *, *, #235, .T. ) ;
#36 = AXIS2_PLACEMENT_3D ( 'NONE', #123, #121, #228 ) ;
#37 = AXIS2_PLACEMENT_3D ( 'NONE', #181, #255, #280 ) ;
#38 = CARTESIAN_POINT ( 'NONE',  ( 0.000000000000000000, 0.000000000000000000, 2.000000000000000000 ) ) ;
#39 = LINE ( 'NONE', #296, #288 ) ;
#40 = CARTESIAN_POINT ( 'NONE',  ( 1.250000000000000000, 1.530808498934191571E-16, 502.0000000000000000 ) ) ;
#41 = EDGE_CURVE ( 'NONE', #96, #243, #149, .T. ) ;
#42 = CARTESIAN_POINT ( 'NONE',  ( 0.000000000000000000, 0.000000000000000000, 2.000000000000000000 ) ) ;
#43 = VECTOR ( 'NONE', #106, 1000.000000000000000 ) ;
#44 = CARTESIAN_POINT ( 'NONE',  ( -2.500000000000000000, 0.000000000000000000, 0.000000000000000000 ) ) ;
#45 = DIRECTION ( 'NONE',  ( 1.000000000000000000, 0.000000000000000000, 0.000000000000000000 ) ) ;
#46 = CARTESIAN_POINT ( 'NONE',  ( 0.000000000000000000, 0.000000000000000000, 2.000000000000000000 ) ) ;
#47 = CARTESIAN_POINT ( 'NONE',  ( 0.000000000000000000, 0.000000000000000000, 0.000000000000000000 ) ) ;
#48 = CALENDAR_DATE ( 2022, 7, 7 ) ;
#49 = EDGE_CURVE ( 'NONE', #240, #267, #208, .T. ) ;
#50 = APPLICATION_PROTOCOL_DEFINITION ( 'international standard', 'config_control_design', 1994, #122 ) ;
#51 = CC_DESIGN_APPROVAL ( #110, ( #52 ) ) ;
#52 = PRODUCT_DEFINITION ( 'NEZNÁMÝ', '', #69, #124 ) ;
#53 = PERSON_AND_ORGANIZATION ( #193, #120 ) ;
#54 = CC_DESIGN_PERSON_AND_ORGANIZATION_ASSIGNMENT ( #214, #285, ( #69 ) ) ;
#55 = CIRCLE ( 'NONE', #293, 1.250000000000000000 ) ;
#56 = AXIS2_PLACEMENT_3D ( 'NONE', #278, #64, #202 ) ;
#57 =( GEOMETRIC_REPRESENTATION_CONTEXT ( 3 ) GLOBAL_UNCERTAINTY_ASSIGNED_CONTEXT ( ( #173 ) ) GLOBAL_UNIT_ASSIGNED_CONTEXT ( ( #152, #104, #1 ) ) REPRESENTATION_CONTEXT ( 'NONE', 'WORKASPACE' ) );
#58 = VERTEX_POINT ( 'NONE', #303 ) ;
#59 = CC_DESIGN_PERSON_AND_ORGANIZATION_ASSIGNMENT ( #53, #68, ( #52 ) ) ;
#60 = FACE_OUTER_BOUND ( 'NONE', #247, .T. ) ;
#61 = DIRECTION ( 'NONE',  ( 1.000000000000000000, 0.000000000000000000, 0.000000000000000000 ) ) ;
#62 = CARTESIAN_POINT ( 'NONE',  ( 0.000000000000000000, 0.000000000000000000, 2.199999999999979750 ) ) ;
#63 = CYLINDRICAL_SURFACE ( 'NONE', #127, 1.250000000000000000 ) ;
#64 = DIRECTION ( 'NONE',  ( 0.000000000000000000, 0.000000000000000000, 1.000000000000000000 ) ) ;
#65 = DIRECTION ( 'NONE',  ( 1.000000000000000000, 0.000000000000000000, 0.000000000000000000 ) ) ;
#66 = DIRECTION ( 'NONE',  ( 0.000000000000000000, 0.000000000000000000, 1.000000000000000000 ) ) ;
#67 = DIRECTION ( 'NONE',  ( -1.000000000000000000, 1.224646799147353207E-16, 0.000000000000000000 ) ) ;
#68 = PERSON_AND_ORGANIZATION_ROLE ( 'creator' ) ;
#69 = PRODUCT_DEFINITION_FORMATION_WITH_SPECIFIED_SOURCE ( 'LIBOVOLNÝ', '', #2, .NOT_KNOWN. ) ;
#70 = SECURITY_CLASSIFICATION_LEVEL ( 'unclassified' ) ;
#71 = PERSON_AND_ORGANIZATION ( #193, #120 ) ;
#72 = ADVANCED_FACE ( 'NONE', ( #199 ), #299, .T. ) ;
#73 = LOCAL_TIME ( 12, 32, 24.00000000000000000, #160 ) ;
#74 = CALENDAR_DATE ( 2022, 7, 7 ) ;
#75 = ORIENTED_EDGE ( 'NONE', *, *, #138, .F. ) ;
#76 = ORIENTED_EDGE ( 'NONE', *, *, #235, .F. ) ;
#77 = ORIENTED_EDGE ( 'NONE', *, *, #271, .T. ) ;
#78 = ORIENTED_EDGE ( 'NONE', *, *, #253, .T. ) ;
#79 = APPROVAL ( #141, 'NEURÈENÝ' ) ;
#80 = CIRCLE ( 'NONE', #259, 1.250000000000000000 ) ;
#81 = DIRECTION ( 'NONE',  ( 1.000000000000000000, 0.000000000000000000, -0.000000000000000000 ) ) ;
#82 = EDGE_LOOP ( 'NONE', ( #143, #35, #99, #231 ) ) ;
#83 = DIRECTION ( 'NONE',  ( -0.000000000000000000, -0.000000000000000000, -1.000000000000000000 ) ) ;
#84 = EDGE_LOOP ( 'NONE', ( #216, #190 ) ) ;
#85 = CARTESIAN_POINT ( 'NONE',  ( 1.250000000000000000, 1.530808498934191571E-16, 502.0000000000000000 ) ) ;
#86 = EDGE_CURVE ( 'NONE', #96, #254, #284, .T. ) ;
#87 = DIRECTION ( 'NONE',  ( -0.000000000000000000, -0.000000000000000000, -1.000000000000000000 ) ) ;
#88 = DIRECTION ( 'NONE',  ( -1.000000000000000000, 0.000000000000000000, 0.000000000000000000 ) ) ;
#89 = AXIS2_PLACEMENT_3D ( 'NONE', #147, #15, #251 ) ;
#90 = DIRECTION ( 'NONE',  ( 1.000000000000000000, 0.000000000000000000, 0.000000000000000000 ) ) ;
#91 = CARTESIAN_POINT ( 'NONE',  ( 2.500000000000000000, 3.061616997868383141E-16, 0.000000000000000000 ) ) ;
#92 = COORDINATED_UNIVERSAL_TIME_OFFSET ( 1, 0, .AHEAD. ) ;
#93 = AXIS2_PLACEMENT_3D ( 'NONE', #108, #233, #67 ) ;
#94 = AXIS2_PLACEMENT_3D ( 'NONE', #102, #183, #282 ) ;
#95 = CARTESIAN_POINT ( 'NONE',  ( 0.000000000000000000, 0.000000000000000000, 0.000000000000000000 ) ) ;
#96 = VERTEX_POINT ( 'NONE', #151 ) ;
#97 = ADVANCED_FACE ( 'NONE', ( #179 ), #172, .F. ) ;
#98 = APPROVAL_PERSON_ORGANIZATION ( #184, #110, #111 ) ;
#99 = ORIENTED_EDGE ( 'NONE', *, *, #138, .T. ) ;
#100 = DIRECTION ( 'NONE',  ( 0.000000000000000000, 0.000000000000000000, 1.000000000000000000 ) ) ;
#101 = AXIS2_PLACEMENT_3D ( 'NONE', #204, #100, #20 ) ;
#102 = CARTESIAN_POINT ( 'NONE',  ( 0.000000000000000000, 0.000000000000000000, 0.000000000000000000 ) ) ;
#103 = DIRECTION ( 'NONE',  ( -1.000000000000000000, 0.000000000000000000, 0.000000000000000000 ) ) ;
#104 =( NAMED_UNIT ( * ) PLANE_ANGLE_UNIT ( ) SI_UNIT ( $, .RADIAN. ) );
#105 = ORIENTED_EDGE ( 'NONE', *, *, #9, .T. ) ;
#106 = DIRECTION ( 'NONE',  ( -0.000000000000000000, -0.000000000000000000, -1.000000000000000000 ) ) ;
#107 = DIRECTION ( 'NONE',  ( 1.000000000000000000, 0.000000000000000000, 0.000000000000000000 ) ) ;
#108 = CARTESIAN_POINT ( 'NONE',  ( -1.450000000000000178, 1.775737858763662163E-16, 2.199999999999979750 ) ) ;
#109 = AXIS2_PLACEMENT_3D ( 'NONE', #203, #125, #150 ) ;
#110 = APPROVAL ( #30, 'NEURÈENÝ' ) ;
#111 = APPROVAL_ROLE ( '' ) ;
#112 = MECHANICAL_CONTEXT ( 'NONE', #122, 'mechanical' ) ;
#113 = DATE_AND_TIME ( #136, #166 ) ;
#114 = ORIENTED_EDGE ( 'NONE', *, *, #41, .F. ) ;
#115 = CC_DESIGN_PERSON_AND_ORGANIZATION_ASSIGNMENT ( #71, #185, ( #69 ) ) ;
#116 = VERTEX_POINT ( 'NONE', #295 ) ;
#117 = PRODUCT_DEFINITION_SHAPE ( 'NONE', 'NONE',  #52 ) ;
#118 = EDGE_LOOP ( 'NONE', ( #76, #225, #301, #78 ) ) ;
#119 = CIRCLE ( 'NONE', #36, 0.2000000000000000944 ) ;
#120 = ORGANIZATION ( 'NEURÈENÝ', 'NEURÈENÝ', '' ) ;
#121 = DIRECTION ( 'NONE',  ( 0.000000000000000000, -1.000000000000000000, 0.000000000000000000 ) ) ;
#122 = APPLICATION_CONTEXT ( 'configuration controlled 3d designs of mechanical parts and assemblies' ) ;
#123 = CARTESIAN_POINT ( 'NONE',  ( 1.450000000000000178, 0.000000000000000000, 2.199999999999979750 ) ) ;
#124 = DESIGN_CONTEXT ( 'detailed design', #165, 'design' ) ;
#125 = DIRECTION ( 'NONE',  ( -0.000000000000000000, -0.000000000000000000, -1.000000000000000000 ) ) ;
#126 = EDGE_LOOP ( 'NONE', ( #273, #12 ) ) ;
#127 = AXIS2_PLACEMENT_3D ( 'NONE', #21, #210, #132 ) ;
#128 = PLANE ( 'NONE',  #25 ) ;
#129 = DIRECTION ( 'NONE',  ( 0.000000000000000000, 0.000000000000000000, 1.000000000000000000 ) ) ;
#130 = VERTEX_POINT ( 'NONE', #207 ) ;
#131 = CARTESIAN_POINT ( 'NONE',  ( 0.000000000000000000, 0.000000000000000000, 502.0000000000000000 ) ) ;
#132 = DIRECTION ( 'NONE',  ( -1.000000000000000000, 0.000000000000000000, 0.000000000000000000 ) ) ;
#133 = CIRCLE ( 'NONE', #89, 2.500000000000000000 ) ;
#134 = CC_DESIGN_DATE_AND_TIME_ASSIGNMENT ( #8, #264, ( #52 ) ) ;
#135 = CC_DESIGN_APPROVAL ( #169, ( #279 ) ) ;
#136 = CALENDAR_DATE ( 2022, 7, 7 ) ;
#137 = DATE_AND_TIME ( #48, #73 ) ;
#138 = EDGE_CURVE ( 'NONE', #58, #130, #55, .T. ) ;
#139 = APPROVAL_DATE_TIME ( #113, #110 ) ;
#140 = AXIS2_PLACEMENT_3D ( 'NONE', #47, #297, #45 ) ;
#141 = APPROVAL_STATUS ( 'not_yet_approved' ) ;
#142 = EDGE_LOOP ( 'NONE', ( #192, #75, #222, #11 ) ) ;
#143 = ORIENTED_EDGE ( 'NONE', *, *, #49, .F. ) ;
#144 = CIRCLE ( 'NONE', #263, 2.500000000000000000 ) ;
#145 = ORIENTED_EDGE ( 'NONE', *, *, #86, .T. ) ;
#146 = EDGE_CURVE ( 'NONE', #254, #33, #281, .T. ) ;
#147 = CARTESIAN_POINT ( 'NONE',  ( 0.000000000000000000, 0.000000000000000000, 0.000000000000000000 ) ) ;
#148 = VECTOR ( 'NONE', #223, 1000.000000000000000 ) ;
#149 = LINE ( 'NONE', #249, #148 ) ;
#150 = DIRECTION ( 'NONE',  ( -1.000000000000000000, 0.000000000000000000, 0.000000000000000000 ) ) ;
#151 = CARTESIAN_POINT ( 'NONE',  ( 2.500000000000000000, 3.061616997868383141E-16, 2.000000000000000000 ) ) ;
#152 =( LENGTH_UNIT ( ) NAMED_UNIT ( * ) SI_UNIT ( .MILLI., .METRE. ) );
#153 = ORIENTED_EDGE ( 'NONE', *, *, #262, .F. ) ;
#154 = AXIS2_PLACEMENT_3D ( 'NONE', #95, #159, #260 ) ;
#155 = DIRECTION ( 'NONE',  ( 0.000000000000000000, 0.000000000000000000, 1.000000000000000000 ) ) ;
#156 = ORIENTED_EDGE ( 'NONE', *, *, #200, .T. ) ;
#157 = PLANE ( 'NONE',  #226 ) ;
#158 = CARTESIAN_POINT ( 'NONE',  ( 0.000000000000000000, 0.000000000000000000, 2.000000000000000000 ) ) ;
#159 = DIRECTION ( 'NONE',  ( 0.000000000000000000, 0.000000000000000000, 1.000000000000000000 ) ) ;
#160 = COORDINATED_UNIVERSAL_TIME_OFFSET ( 1, 0, .AHEAD. ) ;
#161 = APPROVAL_ROLE ( '' ) ;
#162 = LOCAL_TIME ( 12, 32, 24.00000000000000000, #289 ) ;
#163 = APPROVAL_DATE_TIME ( #188, #169 ) ;
#164 = ORIENTED_EDGE ( 'NONE', *, *, #86, .F. ) ;
#165 = APPLICATION_CONTEXT ( 'configuration controlled 3d designs of mechanical parts and assemblies' ) ;
#166 = LOCAL_TIME ( 12, 32, 24.00000000000000000, #92 ) ;
#167 = ORIENTED_EDGE ( 'NONE', *, *, #146, .T. ) ;
#168 = MANIFOLD_SOLID_BREP ( 'Zaoblit1', #195 ) ;
#169 = APPROVAL ( #187, 'NEURÈENÝ' ) ;
#170 = DIRECTION ( 'NONE',  ( -0.000000000000000000, -0.000000000000000000, -1.000000000000000000 ) ) ;
#171 = DIRECTION ( 'NONE',  ( 1.000000000000000000, 0.000000000000000000, 0.000000000000000000 ) ) ;
#172 = TOROIDAL_SURFACE ( 'NONE', #56, 1.450000000000000178, 0.2000000000000000111 ) ;
#173 = UNCERTAINTY_MEASURE_WITH_UNIT (LENGTH_MEASURE( 1.000000000000000082E-05 ), #152, 'distance_accuracy_value', 'NONE');
#174 = CARTESIAN_POINT ( 'NONE',  ( -1.250000000000000000, 0.000000000000000000, 502.0000000000000000 ) ) ;
#175 = EDGE_LOOP ( 'NONE', ( #164, #31, #105, #246 ) ) ;
#176 = DIRECTION ( 'NONE',  ( -0.000000000000000000, -0.000000000000000000, -1.000000000000000000 ) ) ;
#177 = CARTESIAN_POINT ( 'NONE',  ( -1.450000000000000178, 1.775737858763662409E-16, 1.999999999999989564 ) ) ;
#178 = CYLINDRICAL_SURFACE ( 'NONE', #29, 2.500000000000000000 ) ;
#179 = FACE_OUTER_BOUND ( 'NONE', #219, .T. ) ;
#180 = CIRCLE ( 'NONE', #238, 1.450000000000000178 ) ;
#181 = CARTESIAN_POINT ( 'NONE',  ( 0.000000000000000000, 0.000000000000000000, 2.199999999999979750 ) ) ;
#182 = CARTESIAN_POINT ( 'NONE',  ( 0.000000000000000000, 0.000000000000000000, 2.199999999999979750 ) ) ;
#183 = DIRECTION ( 'NONE',  ( 0.000000000000000000, 0.000000000000000000, 1.000000000000000000 ) ) ;
#184 = PERSON_AND_ORGANIZATION ( #193, #120 ) ;
#185 = PERSON_AND_ORGANIZATION_ROLE ( 'creator' ) ;
#186 = AXIS2_PLACEMENT_3D ( 'NONE', #275, #22, #61 ) ;
#187 = APPROVAL_STATUS ( 'not_yet_approved' ) ;
#188 = DATE_AND_TIME ( #74, #227 ) ;
#189 = CC_DESIGN_DATE_AND_TIME_ASSIGNMENT ( #137, #236, ( #279 ) ) ;
#190 = ORIENTED_EDGE ( 'NONE', *, *, #9, .F. ) ;
#191 = ORIENTED_EDGE ( 'NONE', *, *, #32, .F. ) ;
#192 = ORIENTED_EDGE ( 'NONE', *, *, #245, .F. ) ;
#193 = PERSON ( 'NEURÈENÝ', 'NEURÈENÝ', 'NEURÈENÝ', ('NEURÈENÝ'), ('NEURÈENÝ'), ('NEURÈENÝ') ) ;
#194 = ADVANCED_FACE ( 'NONE', ( #252 ), #230, .T. ) ;
#195 = CLOSED_SHELL ( 'NONE', ( #97, #194, #239, #72, #292, #248, #229, #206, #13 ) ) ;
#196 = ADVANCED_BREP_SHAPE_REPRESENTATION ( '8ed3', ( #168, #154 ), #57 ) ;
#197 = FACE_OUTER_BOUND ( 'NONE', #142, .T. ) ;
#198 = CARTESIAN_POINT ( 'NONE',  ( -2.500000000000000000, 0.000000000000000000, 2.000000000000000000 ) ) ;
#199 = FACE_OUTER_BOUND ( 'NONE', #256, .T. ) ;
#200 = EDGE_CURVE ( 'NONE', #267, #240, #80, .T. ) ;
#201 = DIRECTION ( 'NONE',  ( 0.000000000000000000, 0.000000000000000000, 1.000000000000000000 ) ) ;
#202 = DIRECTION ( 'NONE',  ( 1.000000000000000000, 0.000000000000000000, 0.000000000000000000 ) ) ;
#203 = CARTESIAN_POINT ( 'NONE',  ( 0.000000000000000000, 0.000000000000000000, 502.0000000000000000 ) ) ;
#204 = CARTESIAN_POINT ( 'NONE',  ( 0.000000000000000000, 0.000000000000000000, 502.0000000000000000 ) ) ;
#205 = LINE ( 'NONE', #40, #43 ) ;
#206 = ADVANCED_FACE ( 'NONE', ( #302 ), #157, .T. ) ;
#207 = CARTESIAN_POINT ( 'NONE',  ( -1.250000000000000000, 0.000000000000000000, 2.199999999999979750 ) ) ;
#208 = CIRCLE ( 'NONE', #101, 1.250000000000000000 ) ;
#209 = APPROVAL_PERSON_ORGANIZATION ( #28, #169, #286 ) ;
#210 = DIRECTION ( 'NONE',  ( -0.000000000000000000, -0.000000000000000000, -1.000000000000000000 ) ) ;
#211 = PERSON_AND_ORGANIZATION_ROLE ( 'classification_officer' ) ;
#212 = APPROVAL_DATE_TIME ( #6, #79 ) ;
#213 = PERSON_AND_ORGANIZATION ( #193, #120 ) ;
#214 = PERSON_AND_ORGANIZATION ( #193, #120 ) ;
#215 = CC_DESIGN_PERSON_AND_ORGANIZATION_ASSIGNMENT ( #213, #241, ( #2 ) ) ;
#216 = ORIENTED_EDGE ( 'NONE', *, *, #271, .F. ) ;
#217 = VECTOR ( 'NONE', #23, 1000.000000000000000 ) ;
#218 = CIRCLE ( 'NONE', #140, 2.500000000000000000 ) ;
#219 = EDGE_LOOP ( 'NONE', ( #265, #10, #153, #221 ) ) ;
#220 = ORIENTED_EDGE ( 'NONE', *, *, #32, .T. ) ;
#221 = ORIENTED_EDGE ( 'NONE', *, *, #34, .F. ) ;
#222 = ORIENTED_EDGE ( 'NONE', *, *, #34, .T. ) ;
#223 = DIRECTION ( 'NONE',  ( -0.000000000000000000, -0.000000000000000000, -1.000000000000000000 ) ) ;
#224 = PLANE ( 'NONE',  #94 ) ;
#225 = ORIENTED_EDGE ( 'NONE', *, *, #200, .F. ) ;
#226 = AXIS2_PLACEMENT_3D ( 'NONE', #232, #155, #81 ) ;
#227 = LOCAL_TIME ( 12, 32, 24.00000000000000000, #237 ) ;
#228 = DIRECTION ( 'NONE',  ( 0.000000000000000000, 0.000000000000000000, -1.000000000000000000 ) ) ;
#229 = ADVANCED_FACE ( 'NONE', ( #16 ), #63, .T. ) ;
#230 = CYLINDRICAL_SURFACE ( 'NONE', #109, 1.250000000000000000 ) ;
#231 = ORIENTED_EDGE ( 'NONE', *, *, #24, .F. ) ;
#232 = CARTESIAN_POINT ( 'NONE',  ( 0.000000000000000000, 0.000000000000000000, 502.0000000000000000 ) ) ;
#233 = DIRECTION ( 'NONE',  ( 1.224646799147353207E-16, 1.000000000000000000, -0.000000000000000000 ) ) ;
#234 = CALENDAR_DATE ( 2022, 7, 7 ) ;
#235 = EDGE_CURVE ( 'NONE', #240, #58, #205, .T. ) ;
#236 = DATE_TIME_ROLE ( 'classification_date' ) ;
#237 = COORDINATED_UNIVERSAL_TIME_OFFSET ( 1, 0, .AHEAD. ) ;
#238 = AXIS2_PLACEMENT_3D ( 'NONE', #46, #176, #258 ) ;
#239 = ADVANCED_FACE ( 'NONE', ( #277 ), #178, .T. ) ;
#240 = VERTEX_POINT ( 'NONE', #85 ) ;
#241 = PERSON_AND_ORGANIZATION_ROLE ( 'design_owner' ) ;
#242 = CC_DESIGN_PERSON_AND_ORGANIZATION_ASSIGNMENT ( #7, #211, ( #279 ) ) ;
#243 = VERTEX_POINT ( 'NONE', #91 ) ;
#244 = LOCAL_TIME ( 12, 32, 24.00000000000000000, #283 ) ;
#245 = EDGE_CURVE ( 'NONE', #130, #14, #298, .T. ) ;
#246 = ORIENTED_EDGE ( 'NONE', *, *, #146, .F. ) ;
#247 = EDGE_LOOP ( 'NONE', ( #220, #145 ) ) ;
#248 = ADVANCED_FACE ( 'NONE', ( #26 ), #224, .F. ) ;
#249 = CARTESIAN_POINT ( 'NONE',  ( 2.500000000000000000, 3.061616997868383141E-16, 2.000000000000000000 ) ) ;
#250 = DIRECTION ( 'NONE',  ( 1.000000000000000000, 0.000000000000000000, 0.000000000000000000 ) ) ;
#251 = DIRECTION ( 'NONE',  ( 1.000000000000000000, 0.000000000000000000, 0.000000000000000000 ) ) ;
#252 = FACE_OUTER_BOUND ( 'NONE', #82, .T. ) ;
#253 = EDGE_CURVE ( 'NONE', #130, #58, #290, .T. ) ;
#254 = VERTEX_POINT ( 'NONE', #198 ) ;
#255 = DIRECTION ( 'NONE',  ( 0.000000000000000000, 0.000000000000000000, 1.000000000000000000 ) ) ;
#256 = EDGE_LOOP ( 'NONE', ( #114, #191, #167, #77 ) ) ;
#257 = DIRECTION ( 'NONE',  ( -0.000000000000000000, -0.000000000000000000, -1.000000000000000000 ) ) ;
#258 = DIRECTION ( 'NONE',  ( 1.000000000000000000, 0.000000000000000000, 0.000000000000000000 ) ) ;
#259 = AXIS2_PLACEMENT_3D ( 'NONE', #131, #304, #250 ) ;
#260 = DIRECTION ( 'NONE',  ( 1.000000000000000000, 0.000000000000000000, 0.000000000000000000 ) ) ;
#261 = APPLICATION_PROTOCOL_DEFINITION ( 'international standard', 'config_control_design', 1994, #165 ) ;
#262 = EDGE_CURVE ( 'NONE', #116, #14, #5, .T. ) ;
#263 = AXIS2_PLACEMENT_3D ( 'NONE', #38, #129, #171 ) ;
#264 = DATE_TIME_ROLE ( 'creation_date' ) ;
#265 = ORIENTED_EDGE ( 'NONE', *, *, #253, .F. ) ;
#266 = PERSON_AND_ORGANIZATION ( #193, #120 ) ;
#267 = VERTEX_POINT ( 'NONE', #174 ) ;
#268 = AXIS2_PLACEMENT_3D ( 'NONE', #270, #87, #103 ) ;
#269 = EDGE_CURVE ( 'NONE', #14, #116, #180, .T. ) ;
#270 = CARTESIAN_POINT ( 'NONE',  ( 0.000000000000000000, 0.000000000000000000, 2.000000000000000000 ) ) ;
#271 = EDGE_CURVE ( 'NONE', #33, #243, #218, .T. ) ;
#272 = APPROVAL_PERSON_ORGANIZATION ( #266, #79, #161 ) ;
#273 = ORIENTED_EDGE ( 'NONE', *, *, #262, .T. ) ;
#274 = FACE_BOUND ( 'NONE', #126, .T. ) ;
#275 = CARTESIAN_POINT ( 'NONE',  ( 0.000000000000000000, 0.000000000000000000, 2.000000000000000000 ) ) ;
#276 = ORIENTED_EDGE ( 'NONE', *, *, #49, .T. ) ;
#277 = FACE_OUTER_BOUND ( 'NONE', #175, .T. ) ;
#278 = CARTESIAN_POINT ( 'NONE',  ( 0.000000000000000000, 0.000000000000000000, 2.199999999999979750 ) ) ;
#279 = SECURITY_CLASSIFICATION ( '', '', #70 ) ;
#280 = DIRECTION ( 'NONE',  ( 1.000000000000000000, 0.000000000000000000, 0.000000000000000000 ) ) ;
#281 = LINE ( 'NONE', #306, #217 ) ;
#282 = DIRECTION ( 'NONE',  ( 1.000000000000000000, 0.000000000000000000, -0.000000000000000000 ) ) ;
#283 = COORDINATED_UNIVERSAL_TIME_OFFSET ( 1, 0, .AHEAD. ) ;
#284 = CIRCLE ( 'NONE', #186, 2.500000000000000000 ) ;
#285 = PERSON_AND_ORGANIZATION_ROLE ( 'design_supplier' ) ;
#286 = APPROVAL_ROLE ( '' ) ;
#287 = SHAPE_DEFINITION_REPRESENTATION ( #117, #196 ) ;
#288 = VECTOR ( 'NONE', #170, 1000.000000000000000 ) ;
#289 = COORDINATED_UNIVERSAL_TIME_OFFSET ( 1, 0, .AHEAD. ) ;
#290 = CIRCLE ( 'NONE', #37, 1.250000000000000000 ) ;
#291 = EDGE_LOOP ( 'NONE', ( #156, #276 ) ) ;
#292 = ADVANCED_FACE ( 'NONE', ( #274, #60 ), #128, .T. ) ;
#293 = AXIS2_PLACEMENT_3D ( 'NONE', #182, #66, #90 ) ;
#294 = AXIS2_PLACEMENT_3D ( 'NONE', #158, #83, #65 ) ;
#295 = CARTESIAN_POINT ( 'NONE',  ( 1.450000000000000178, 0.000000000000000000, 1.999999999999989564 ) ) ;
#296 = CARTESIAN_POINT ( 'NONE',  ( -1.250000000000000000, 0.000000000000000000, 502.0000000000000000 ) ) ;
#297 = DIRECTION ( 'NONE',  ( 0.000000000000000000, 0.000000000000000000, 1.000000000000000000 ) ) ;
#298 = CIRCLE ( 'NONE', #93, 0.2000000000000000944 ) ;
#299 = CYLINDRICAL_SURFACE ( 'NONE', #268, 2.500000000000000000 ) ;
#300 = DIRECTION ( 'NONE',  ( 1.000000000000000000, 0.000000000000000000, -0.000000000000000000 ) ) ;
#301 = ORIENTED_EDGE ( 'NONE', *, *, #24, .T. ) ;
#302 = FACE_OUTER_BOUND ( 'NONE', #291, .T. ) ;
#303 = CARTESIAN_POINT ( 'NONE',  ( 1.250000000000000000, 1.530808498934191571E-16, 2.199999999999979750 ) ) ;
#304 = DIRECTION ( 'NONE',  ( 0.000000000000000000, 0.000000000000000000, 1.000000000000000000 ) ) ;
#305 = PRODUCT_RELATED_PRODUCT_CATEGORY ( 'detail', '', ( #2 ) ) ;
#306 = CARTESIAN_POINT ( 'NONE',  ( -2.500000000000000000, 0.000000000000000000, 2.000000000000000000 ) ) ;
#307 = CARTESIAN_POINT ( 'NONE',  ( 0.000000000000000000, 0.000000000000000000, 2.000000000000000000 ) ) ;
ENDSEC;
END-ISO-10303-21;
