ISO-10303-21;
HEADER;
FILE_DESCRIPTION (( 'STEP AP203' ),
    '1' );
FILE_NAME ('51bb.STEP',
    '2022-07-07T09:51:33',
    ( '' ),
    ( '' ),
    'SwSTEP 2.0',
    'SolidWorks 2019',
    '' );
FILE_SCHEMA (( 'CONFIG_CONTROL_DESIGN' ));
ENDSEC;

DATA;
#1 = ADVANCED_FACE ( 'NONE', ( #57 ), #211, .F. ) ;
#2 = AXIS2_PLACEMENT_3D ( 'NONE', #19, #167, #106 ) ;
#3 = CIRCLE ( 'NONE', #108, 5.100000000000001421 ) ;
#4 = ORIENTED_EDGE ( 'NONE', *, *, #237, .T. ) ;
#5 = CC_DESIGN_SECURITY_CLASSIFICATION ( #175, ( #136 ) ) ;
#6 = AXIS2_PLACEMENT_3D ( 'NONE', #279, #127, #223 ) ;
#7 = CC_DESIGN_APPROVAL ( #55, ( #136 ) ) ;
#8 = EDGE_CURVE ( 'NONE', #102, #294, #33, .T. ) ;
#9 = DIRECTION ( 'NONE',  ( 1.000000000000000000, 0.000000000000000000, 0.000000000000000000 ) ) ;
#10 = EDGE_LOOP ( 'NONE', ( #90, #290, #184, #150 ) ) ;
#11 = FACE_OUTER_BOUND ( 'NONE', #286, .T. ) ;
#12 = LINE ( 'NONE', #152, #253 ) ;
#13 = CARTESIAN_POINT ( 'NONE',  ( 5.100000000000001421, 6.245698675651502811E-16, 805.0000000000000000 ) ) ;
#14 = PERSON_AND_ORGANIZATION ( #214, #131 ) ;
#15 = PLANE ( 'NONE',  #140 ) ;
#16 = VERTEX_POINT ( 'NONE', #121 ) ;
#17 = EDGE_CURVE ( 'NONE', #277, #46, #12, .T. ) ;
#18 = DIRECTION ( 'NONE',  ( 0.000000000000000000, 0.000000000000000000, 1.000000000000000000 ) ) ;
#19 = CARTESIAN_POINT ( 'NONE',  ( 0.000000000000000000, 0.000000000000000000, 805.0000000000000000 ) ) ;
#20 = CIRCLE ( 'NONE', #185, 8.000000000000000000 ) ;
#21 = DIRECTION ( 'NONE',  ( 1.000000000000000000, 0.000000000000000000, 0.000000000000000000 ) ) ;
#22 = PERSON_AND_ORGANIZATION_ROLE ( 'creator' ) ;
#23 = PRODUCT ( '51bb', '51bb', '', ( #201 ) ) ;
#24 = DATE_TIME_ROLE ( 'classification_date' ) ;
#25 = CIRCLE ( 'NONE', #58, 5.300000000000000711 ) ;
#26 = ORIENTED_EDGE ( 'NONE', *, *, #133, .T. ) ;
#27 = EDGE_LOOP ( 'NONE', ( #226, #200 ) ) ;
#28 = TOROIDAL_SURFACE ( 'NONE', #236, 5.300000000000000711, 0.2000000000000000111 ) ;
#29 = CC_DESIGN_PERSON_AND_ORGANIZATION_ASSIGNMENT ( #110, #66, ( #175 ) ) ;
#30 = CARTESIAN_POINT ( 'NONE',  ( 0.000000000000000000, 0.000000000000000000, 805.0000000000000000 ) ) ;
#31 = DIRECTION ( 'NONE',  ( 1.000000000000000000, 0.000000000000000000, 0.000000000000000000 ) ) ;
#32 = PLANE ( 'NONE',  #45 ) ;
#33 = LINE ( 'NONE', #204, #258 ) ;
#34 = CIRCLE ( 'NONE', #122, 8.000000000000000000 ) ;
#35 = DIRECTION ( 'NONE',  ( -0.000000000000000000, -0.000000000000000000, -1.000000000000000000 ) ) ;
#36 = FACE_OUTER_BOUND ( 'NONE', #224, .T. ) ;
#37 = ORIENTED_EDGE ( 'NONE', *, *, #257, .F. ) ;
#38 = PERSON_AND_ORGANIZATION_ROLE ( 'design_owner' ) ;
#39 = DIRECTION ( 'NONE',  ( 0.000000000000000000, 0.000000000000000000, 1.000000000000000000 ) ) ;
#40 = ADVANCED_BREP_SHAPE_REPRESENTATION ( '51bb', ( #139, #259 ), #207 ) ;
#41 = CALENDAR_DATE ( 2022, 7, 7 ) ;
#42 = EDGE_CURVE ( 'NONE', #277, #102, #113, .T. ) ;
#43 = CARTESIAN_POINT ( 'NONE',  ( 0.000000000000000000, 0.000000000000000000, 0.000000000000000000 ) ) ;
#44 = ORIENTED_EDGE ( 'NONE', *, *, #292, .F. ) ;
#45 = AXIS2_PLACEMENT_3D ( 'NONE', #120, #39, #72 ) ;
#46 = VERTEX_POINT ( 'NONE', #144 ) ;
#47 = CC_DESIGN_PERSON_AND_ORGANIZATION_ASSIGNMENT ( #171, #22, ( #136 ) ) ;
#48 = AXIS2_PLACEMENT_3D ( 'NONE', #170, #272, #99 ) ;
#49 = CIRCLE ( 'NONE', #48, 0.1999999999999996503 ) ;
#50 = CARTESIAN_POINT ( 'NONE',  ( 8.000000000000000000, 9.797174393178825657E-16, 5.000000000000000000 ) ) ;
#51 = CARTESIAN_POINT ( 'NONE',  ( 0.000000000000000000, 0.000000000000000000, 5.199999999999982414 ) ) ;
#52 = DIRECTION ( 'NONE',  ( -0.000000000000000000, -0.000000000000000000, -1.000000000000000000 ) ) ;
#53 = CARTESIAN_POINT ( 'NONE',  ( 0.000000000000000000, 0.000000000000000000, 5.000000000000000000 ) ) ;
#54 = COORDINATED_UNIVERSAL_TIME_OFFSET ( 1, 0, .AHEAD. ) ;
#55 = APPROVAL ( #86, 'NEURÈENÝ' ) ;
#56 = CARTESIAN_POINT ( 'NONE',  ( -8.000000000000000000, 0.000000000000000000, 5.000000000000000000 ) ) ;
#57 = FACE_OUTER_BOUND ( 'NONE', #249, .T. ) ;
#58 = AXIS2_PLACEMENT_3D ( 'NONE', #280, #65, #283 ) ;
#59 = DIRECTION ( 'NONE',  ( 0.000000000000000000, 0.000000000000000000, 1.000000000000000000 ) ) ;
#60 = APPROVAL_DATE_TIME ( #252, #162 ) ;
#61 = PLANE ( 'NONE',  #261 ) ;
#62 = ORIENTED_EDGE ( 'NONE', *, *, #264, .F. ) ;
#63 = DATE_AND_TIME ( #41, #92 ) ;
#64 = COORDINATED_UNIVERSAL_TIME_OFFSET ( 1, 0, .AHEAD. ) ;
#65 = DIRECTION ( 'NONE',  ( -0.000000000000000000, -0.000000000000000000, -1.000000000000000000 ) ) ;
#66 = PERSON_AND_ORGANIZATION_ROLE ( 'classification_officer' ) ;
#67 = ADVANCED_FACE ( 'NONE', ( #241 ), #306, .T. ) ;
#68 = EDGE_CURVE ( 'NONE', #294, #46, #107, .T. ) ;
#69 = ORIENTED_EDGE ( 'NONE', *, *, #17, .F. ) ;
#70 = VECTOR ( 'NONE', #35, 1000.000000000000000 ) ;
#71 = DIRECTION ( 'NONE',  ( 0.000000000000000000, 0.000000000000000000, 1.000000000000000000 ) ) ;
#72 = DIRECTION ( 'NONE',  ( 1.000000000000000000, 0.000000000000000000, -0.000000000000000000 ) ) ;
#73 = DIRECTION ( 'NONE',  ( -0.000000000000000000, -0.000000000000000000, -1.000000000000000000 ) ) ;
#74 = EDGE_CURVE ( 'NONE', #243, #134, #271, .T. ) ;
#75 = DIRECTION ( 'NONE',  ( -0.000000000000000000, -0.000000000000000000, -1.000000000000000000 ) ) ;
#76 = DIRECTION ( 'NONE',  ( 0.000000000000000000, 0.000000000000000000, 1.000000000000000000 ) ) ;
#77 = CARTESIAN_POINT ( 'NONE',  ( 0.000000000000000000, 0.000000000000000000, 805.0000000000000000 ) ) ;
#78 = COORDINATED_UNIVERSAL_TIME_OFFSET ( 1, 0, .AHEAD. ) ;
#79 = FACE_OUTER_BOUND ( 'NONE', #10, .T. ) ;
#80 = DIRECTION ( 'NONE',  ( 1.000000000000000000, 0.000000000000000000, 0.000000000000000000 ) ) ;
#81 = AXIS2_PLACEMENT_3D ( 'NONE', #30, #199, #276 ) ;
#82 = APPLICATION_PROTOCOL_DEFINITION ( 'international standard', 'config_control_design', 1994, #270 ) ;
#83 = CARTESIAN_POINT ( 'NONE',  ( 0.000000000000000000, 0.000000000000000000, 5.000000000000000000 ) ) ;
#84 = ORIENTED_EDGE ( 'NONE', *, *, #257, .T. ) ;
#85 = CC_DESIGN_DATE_AND_TIME_ASSIGNMENT ( #229, #198, ( #209 ) ) ;
#86 = APPROVAL_STATUS ( 'not_yet_approved' ) ;
#87 =( NAMED_UNIT ( * ) SI_UNIT ( $, .STERADIAN. ) SOLID_ANGLE_UNIT ( ) );
#88 = VECTOR ( 'NONE', #166, 1000.000000000000000 ) ;
#89 = ORIENTED_EDGE ( 'NONE', *, *, #93, .F. ) ;
#90 = ORIENTED_EDGE ( 'NONE', *, *, #42, .F. ) ;
#91 = AXIS2_PLACEMENT_3D ( 'NONE', #94, #98, #192 ) ;
#92 = LOCAL_TIME ( 11, 51, 33.00000000000000000, #278 ) ;
#93 = EDGE_CURVE ( 'NONE', #102, #277, #285, .T. ) ;
#94 = CARTESIAN_POINT ( 'NONE',  ( 0.000000000000000000, 0.000000000000000000, 5.000000000000000000 ) ) ;
#95 = FACE_OUTER_BOUND ( 'NONE', #27, .T. ) ;
#96 = ORIENTED_EDGE ( 'NONE', *, *, #230, .T. ) ;
#97 = CYLINDRICAL_SURFACE ( 'NONE', #141, 8.000000000000000000 ) ;
#98 = DIRECTION ( 'NONE',  ( -0.000000000000000000, -0.000000000000000000, -1.000000000000000000 ) ) ;
#99 = DIRECTION ( 'NONE',  ( 0.000000000000000000, 0.000000000000000000, -1.000000000000000000 ) ) ;
#100 = DATE_AND_TIME ( #233, #158 ) ;
#101 = CARTESIAN_POINT ( 'NONE',  ( 0.000000000000000000, 0.000000000000000000, 0.000000000000000000 ) ) ;
#102 = VERTEX_POINT ( 'NONE', #164 ) ;
#103 = PERSON_AND_ORGANIZATION ( #214, #131 ) ;
#104 = DATE_AND_TIME ( #156, #213 ) ;
#105 = CARTESIAN_POINT ( 'NONE',  ( 0.000000000000000000, 0.000000000000000000, 5.199999999999982414 ) ) ;
#106 = DIRECTION ( 'NONE',  ( 1.000000000000000000, 0.000000000000000000, 0.000000000000000000 ) ) ;
#107 = CIRCLE ( 'NONE', #234, 5.100000000000001421 ) ;
#108 = AXIS2_PLACEMENT_3D ( 'NONE', #105, #203, #293 ) ;
#109 =( LENGTH_UNIT ( ) NAMED_UNIT ( * ) SI_UNIT ( .MILLI., .METRE. ) );
#110 = PERSON_AND_ORGANIZATION ( #214, #131 ) ;
#111 = CARTESIAN_POINT ( 'NONE',  ( -5.300000000000000711, 6.490628035480972910E-16, 5.199999999999982414 ) ) ;
#112 = CC_DESIGN_PERSON_AND_ORGANIZATION_ASSIGNMENT ( #250, #281, ( #209 ) ) ;
#113 = CIRCLE ( 'NONE', #2, 5.100000000000001421 ) ;
#114 = PRODUCT_RELATED_PRODUCT_CATEGORY ( 'detail', '', ( #23 ) ) ;
#115 = EDGE_LOOP ( 'NONE', ( #69, #89, #146, #289 ) ) ;
#116 = ADVANCED_FACE ( 'NONE', ( #36 ), #15, .F. ) ;
#117 = UNCERTAINTY_MEASURE_WITH_UNIT (LENGTH_MEASURE( 1.000000000000000082E-05 ), #109, 'distance_accuracy_value', 'NONE');
#118 = CARTESIAN_POINT ( 'NONE',  ( 0.000000000000000000, 0.000000000000000000, 805.0000000000000000 ) ) ;
#119 = EDGE_LOOP ( 'NONE', ( #159, #216, #208, #62 ) ) ;
#120 = CARTESIAN_POINT ( 'NONE',  ( 0.000000000000000000, 0.000000000000000000, 5.000000000000000000 ) ) ;
#121 = CARTESIAN_POINT ( 'NONE',  ( 5.300000000000000711, 0.000000000000000000, 4.999999999999991118 ) ) ;
#122 = AXIS2_PLACEMENT_3D ( 'NONE', #83, #225, #215 ) ;
#123 = FACE_OUTER_BOUND ( 'NONE', #115, .T. ) ;
#124 = CARTESIAN_POINT ( 'NONE',  ( -8.000000000000000000, 0.000000000000000000, 5.000000000000000000 ) ) ;
#125 = VERTEX_POINT ( 'NONE', #168 ) ;
#126 = PERSON_AND_ORGANIZATION ( #214, #131 ) ;
#127 = DIRECTION ( 'NONE',  ( 0.000000000000000000, 0.000000000000000000, 1.000000000000000000 ) ) ;
#128 = DIRECTION ( 'NONE',  ( -0.000000000000000000, -0.000000000000000000, -1.000000000000000000 ) ) ;
#129 = CARTESIAN_POINT ( 'NONE',  ( 8.000000000000000000, 9.797174393178825657E-16, 5.000000000000000000 ) ) ;
#130 = CALENDAR_DATE ( 2022, 7, 7 ) ;
#131 = ORGANIZATION ( 'NEURÈENÝ', 'NEURÈENÝ', '' ) ;
#132 = PERSON_AND_ORGANIZATION ( #214, #131 ) ;
#133 = EDGE_CURVE ( 'NONE', #125, #137, #20, .T. ) ;
#134 = VERTEX_POINT ( 'NONE', #50 ) ;
#135 = AXIS2_PLACEMENT_3D ( 'NONE', #53, #76, #169 ) ;
#136 = PRODUCT_DEFINITION_FORMATION_WITH_SPECIFIED_SOURCE ( 'LIBOVOLNÝ', '', #23, .NOT_KNOWN. ) ;
#137 = VERTEX_POINT ( 'NONE', #143 ) ;
#138 = CIRCLE ( 'NONE', #181, 5.300000000000000711 ) ;
#139 = MANIFOLD_SOLID_BREP ( 'Zaoblit1', #189 ) ;
#140 = AXIS2_PLACEMENT_3D ( 'NONE', #101, #305, #300 ) ;
#141 = AXIS2_PLACEMENT_3D ( 'NONE', #195, #75, #268 ) ;
#142 = ADVANCED_FACE ( 'NONE', ( #79 ), #178, .T. ) ;
#143 = CARTESIAN_POINT ( 'NONE',  ( -8.000000000000000000, 0.000000000000000000, 0.000000000000000000 ) ) ;
#144 = CARTESIAN_POINT ( 'NONE',  ( 5.100000000000001421, 6.245698675651502811E-16, 5.199999999999982414 ) ) ;
#145 = DIRECTION ( 'NONE',  ( 0.000000000000000000, 0.000000000000000000, 1.000000000000000000 ) ) ;
#146 = ORIENTED_EDGE ( 'NONE', *, *, #8, .T. ) ;
#147 = DIRECTION ( 'NONE',  ( 0.000000000000000000, 0.000000000000000000, 1.000000000000000000 ) ) ;
#148 = SHAPE_DEFINITION_REPRESENTATION ( #282, #40 ) ;
#149 = DIRECTION ( 'NONE',  ( 1.000000000000000000, 0.000000000000000000, -0.000000000000000000 ) ) ;
#150 = ORIENTED_EDGE ( 'NONE', *, *, #8, .F. ) ;
#151 = FACE_BOUND ( 'NONE', #263, .T. ) ;
#152 = CARTESIAN_POINT ( 'NONE',  ( 5.100000000000001421, 6.245698675651502811E-16, 805.0000000000000000 ) ) ;
#153 = APPROVAL ( #302, 'NEURÈENÝ' ) ;
#154 = APPROVAL_DATE_TIME ( #63, #153 ) ;
#155 =( NAMED_UNIT ( * ) PLANE_ANGLE_UNIT ( ) SI_UNIT ( $, .RADIAN. ) );
#156 = CALENDAR_DATE ( 2022, 7, 7 ) ;
#157 = APPLICATION_PROTOCOL_DEFINITION ( 'international standard', 'config_control_design', 1994, #228 ) ;
#158 = LOCAL_TIME ( 11, 51, 33.00000000000000000, #205 ) ;
#159 = ORIENTED_EDGE ( 'NONE', *, *, #68, .F. ) ;
#160 = AXIS2_PLACEMENT_3D ( 'NONE', #111, #197, #227 ) ;
#161 = CC_DESIGN_PERSON_AND_ORGANIZATION_ASSIGNMENT ( #103, #38, ( #23 ) ) ;
#162 = APPROVAL ( #267, 'NEURÈENÝ' ) ;
#163 = APPROVAL_PERSON_ORGANIZATION ( #273, #162, #303 ) ;
#164 = CARTESIAN_POINT ( 'NONE',  ( -5.100000000000001421, 0.000000000000000000, 805.0000000000000000 ) ) ;
#165 = ORIENTED_EDGE ( 'NONE', *, *, #304, .F. ) ;
#166 = DIRECTION ( 'NONE',  ( -0.000000000000000000, -0.000000000000000000, -1.000000000000000000 ) ) ;
#167 = DIRECTION ( 'NONE',  ( 0.000000000000000000, 0.000000000000000000, 1.000000000000000000 ) ) ;
#168 = CARTESIAN_POINT ( 'NONE',  ( 8.000000000000000000, 9.797174393178825657E-16, 0.000000000000000000 ) ) ;
#169 = DIRECTION ( 'NONE',  ( 1.000000000000000000, 0.000000000000000000, 0.000000000000000000 ) ) ;
#170 = CARTESIAN_POINT ( 'NONE',  ( 5.300000000000000711, 0.000000000000000000, 5.199999999999982414 ) ) ;
#171 = PERSON_AND_ORGANIZATION ( #214, #131 ) ;
#172 = ADVANCED_FACE ( 'NONE', ( #95 ), #61, .T. ) ;
#173 = CARTESIAN_POINT ( 'NONE',  ( 0.000000000000000000, 0.000000000000000000, 0.000000000000000000 ) ) ;
#174 = ORIENTED_EDGE ( 'NONE', *, *, #206, .F. ) ;
#175 = SECURITY_CLASSIFICATION ( '', '', #222 ) ;
#176 = APPROVAL_ROLE ( '' ) ;
#177 = PERSON_AND_ORGANIZATION_ROLE ( 'design_supplier' ) ;
#178 = CYLINDRICAL_SURFACE ( 'NONE', #81, 5.100000000000001421 ) ;
#179 = DIRECTION ( 'NONE',  ( -1.000000000000000000, 0.000000000000000000, 0.000000000000000000 ) ) ;
#180 = APPROVAL_ROLE ( '' ) ;
#181 = AXIS2_PLACEMENT_3D ( 'NONE', #265, #52, #219 ) ;
#182 = ORIENTED_EDGE ( 'NONE', *, *, #264, .T. ) ;
#183 = CC_DESIGN_PERSON_AND_ORGANIZATION_ASSIGNMENT ( #14, #177, ( #136 ) ) ;
#184 = ORIENTED_EDGE ( 'NONE', *, *, #206, .T. ) ;
#185 = AXIS2_PLACEMENT_3D ( 'NONE', #173, #18, #9 ) ;
#186 = CC_DESIGN_APPROVAL ( #153, ( #209 ) ) ;
#187 = ORIENTED_EDGE ( 'NONE', *, *, #74, .F. ) ;
#188 = ADVANCED_FACE ( 'NONE', ( #151, #248 ), #32, .T. ) ;
#189 = CLOSED_SHELL ( 'NONE', ( #212, #142, #67, #239, #188, #116, #260, #172, #1 ) ) ;
#190 = APPROVAL_PERSON_ORGANIZATION ( #126, #153, #176 ) ;
#191 = EDGE_CURVE ( 'NONE', #134, #243, #34, .T. ) ;
#192 = DIRECTION ( 'NONE',  ( -1.000000000000000000, 0.000000000000000000, 0.000000000000000000 ) ) ;
#193 = FACE_OUTER_BOUND ( 'NONE', #119, .T. ) ;
#194 = ORIENTED_EDGE ( 'NONE', *, *, #284, .T. ) ;
#195 = CARTESIAN_POINT ( 'NONE',  ( 0.000000000000000000, 0.000000000000000000, 5.000000000000000000 ) ) ;
#196 = DIRECTION ( 'NONE',  ( 0.000000000000000000, 0.000000000000000000, 1.000000000000000000 ) ) ;
#197 = DIRECTION ( 'NONE',  ( 1.224646799147353207E-16, 1.000000000000000000, -0.000000000000000000 ) ) ;
#198 = DATE_TIME_ROLE ( 'creation_date' ) ;
#199 = DIRECTION ( 'NONE',  ( -0.000000000000000000, -0.000000000000000000, -1.000000000000000000 ) ) ;
#200 = ORIENTED_EDGE ( 'NONE', *, *, #42, .T. ) ;
#201 = MECHANICAL_CONTEXT ( 'NONE', #228, 'mechanical' ) ;
#202 = CALENDAR_DATE ( 2022, 7, 7 ) ;
#203 = DIRECTION ( 'NONE',  ( 0.000000000000000000, 0.000000000000000000, 1.000000000000000000 ) ) ;
#204 = CARTESIAN_POINT ( 'NONE',  ( -5.100000000000001421, 0.000000000000000000, 805.0000000000000000 ) ) ;
#205 = COORDINATED_UNIVERSAL_TIME_OFFSET ( 1, 0, .AHEAD. ) ;
#206 = EDGE_CURVE ( 'NONE', #46, #294, #3, .T. ) ;
#207 =( GEOMETRIC_REPRESENTATION_CONTEXT ( 3 ) GLOBAL_UNCERTAINTY_ASSIGNED_CONTEXT ( ( #117 ) ) GLOBAL_UNIT_ASSIGNED_CONTEXT ( ( #109, #155, #87 ) ) REPRESENTATION_CONTEXT ( 'NONE', 'WORKASPACE' ) );
#208 = ORIENTED_EDGE ( 'NONE', *, *, #237, .F. ) ;
#209 = PRODUCT_DEFINITION ( 'NEZNÁMÝ', '', #136, #274 ) ;
#210 = EDGE_LOOP ( 'NONE', ( #238, #269 ) ) ;
#211 = TOROIDAL_SURFACE ( 'NONE', #217, 5.300000000000000711, 0.2000000000000000111 ) ;
#212 = ADVANCED_FACE ( 'NONE', ( #193 ), #28, .F. ) ;
#213 = LOCAL_TIME ( 11, 51, 33.00000000000000000, #78 ) ;
#214 = PERSON ( 'NEURÈENÝ', 'NEURÈENÝ', 'NEURÈENÝ', ('NEURÈENÝ'), ('NEURÈENÝ'), ('NEURÈENÝ') ) ;
#215 = DIRECTION ( 'NONE',  ( 1.000000000000000000, 0.000000000000000000, 0.000000000000000000 ) ) ;
#216 = ORIENTED_EDGE ( 'NONE', *, *, #292, .T. ) ;
#217 = AXIS2_PLACEMENT_3D ( 'NONE', #51, #196, #80 ) ;
#218 = CIRCLE ( 'NONE', #291, 8.000000000000000000 ) ;
#219 = DIRECTION ( 'NONE',  ( 1.000000000000000000, 0.000000000000000000, 0.000000000000000000 ) ) ;
#220 = VERTEX_POINT ( 'NONE', #262 ) ;
#221 = DIRECTION ( 'NONE',  ( -0.000000000000000000, -0.000000000000000000, -1.000000000000000000 ) ) ;
#222 = SECURITY_CLASSIFICATION_LEVEL ( 'unclassified' ) ;
#223 = DIRECTION ( 'NONE',  ( 1.000000000000000000, 0.000000000000000000, 0.000000000000000000 ) ) ;
#224 = EDGE_LOOP ( 'NONE', ( #165, #255 ) ) ;
#225 = DIRECTION ( 'NONE',  ( 0.000000000000000000, 0.000000000000000000, 1.000000000000000000 ) ) ;
#226 = ORIENTED_EDGE ( 'NONE', *, *, #93, .T. ) ;
#227 = DIRECTION ( 'NONE',  ( -1.000000000000000000, 1.224646799147353454E-16, 0.000000000000000000 ) ) ;
#228 = APPLICATION_CONTEXT ( 'configuration controlled 3d designs of mechanical parts and assemblies' ) ;
#229 = DATE_AND_TIME ( #130, #275 ) ;
#230 = EDGE_CURVE ( 'NONE', #243, #137, #240, .T. ) ;
#231 = CIRCLE ( 'NONE', #160, 0.1999999999999996503 ) ;
#232 = CARTESIAN_POINT ( 'NONE',  ( -5.100000000000001421, 0.000000000000000000, 5.199999999999982414 ) ) ;
#233 = CALENDAR_DATE ( 2022, 7, 7 ) ;
#234 = AXIS2_PLACEMENT_3D ( 'NONE', #266, #71, #31 ) ;
#235 = ORIENTED_EDGE ( 'NONE', *, *, #304, .T. ) ;
#236 = AXIS2_PLACEMENT_3D ( 'NONE', #297, #242, #295 ) ;
#237 = EDGE_CURVE ( 'NONE', #16, #220, #138, .T. ) ;
#238 = ORIENTED_EDGE ( 'NONE', *, *, #74, .T. ) ;
#239 = ADVANCED_FACE ( 'NONE', ( #11 ), #97, .T. ) ;
#240 = LINE ( 'NONE', #124, #88 ) ;
#241 = FACE_OUTER_BOUND ( 'NONE', #298, .T. ) ;
#242 = DIRECTION ( 'NONE',  ( 0.000000000000000000, 0.000000000000000000, 1.000000000000000000 ) ) ;
#243 = VERTEX_POINT ( 'NONE', #56 ) ;
#244 = DIRECTION ( 'NONE',  ( 1.000000000000000000, 0.000000000000000000, 0.000000000000000000 ) ) ;
#245 = AXIS2_PLACEMENT_3D ( 'NONE', #77, #221, #179 ) ;
#246 = LINE ( 'NONE', #129, #70 ) ;
#247 = ORIENTED_EDGE ( 'NONE', *, *, #230, .F. ) ;
#248 = FACE_OUTER_BOUND ( 'NONE', #210, .T. ) ;
#249 = EDGE_LOOP ( 'NONE', ( #44, #174, #182, #301 ) ) ;
#250 = PERSON_AND_ORGANIZATION ( #214, #131 ) ;
#251 = CARTESIAN_POINT ( 'NONE',  ( 0.000000000000000000, 0.000000000000000000, 0.000000000000000000 ) ) ;
#252 = DATE_AND_TIME ( #202, #256 ) ;
#253 = VECTOR ( 'NONE', #128, 1000.000000000000000 ) ;
#254 = APPROVAL_PERSON_ORGANIZATION ( #132, #55, #180 ) ;
#255 = ORIENTED_EDGE ( 'NONE', *, *, #133, .F. ) ;
#256 = LOCAL_TIME ( 11, 51, 33.00000000000000000, #54 ) ;
#257 = EDGE_CURVE ( 'NONE', #134, #125, #246, .T. ) ;
#258 = VECTOR ( 'NONE', #73, 1000.000000000000000 ) ;
#259 = AXIS2_PLACEMENT_3D ( 'NONE', #43, #147, #244 ) ;
#260 = ADVANCED_FACE ( 'NONE', ( #123 ), #307, .T. ) ;
#261 = AXIS2_PLACEMENT_3D ( 'NONE', #118, #145, #149 ) ;
#262 = CARTESIAN_POINT ( 'NONE',  ( -5.300000000000000711, 6.490628035480971924E-16, 4.999999999999991118 ) ) ;
#263 = EDGE_LOOP ( 'NONE', ( #4, #194 ) ) ;
#264 = EDGE_CURVE ( 'NONE', #46, #16, #49, .T. ) ;
#265 = CARTESIAN_POINT ( 'NONE',  ( 0.000000000000000000, 0.000000000000000000, 5.000000000000000000 ) ) ;
#266 = CARTESIAN_POINT ( 'NONE',  ( 0.000000000000000000, 0.000000000000000000, 5.199999999999982414 ) ) ;
#267 = APPROVAL_STATUS ( 'not_yet_approved' ) ;
#268 = DIRECTION ( 'NONE',  ( -1.000000000000000000, 0.000000000000000000, 0.000000000000000000 ) ) ;
#269 = ORIENTED_EDGE ( 'NONE', *, *, #191, .T. ) ;
#270 = APPLICATION_CONTEXT ( 'configuration controlled 3d designs of mechanical parts and assemblies' ) ;
#271 = CIRCLE ( 'NONE', #135, 8.000000000000000000 ) ;
#272 = DIRECTION ( 'NONE',  ( 0.000000000000000000, -1.000000000000000000, 0.000000000000000000 ) ) ;
#273 = PERSON_AND_ORGANIZATION ( #214, #131 ) ;
#274 = DESIGN_CONTEXT ( 'detailed design', #270, 'design' ) ;
#275 = LOCAL_TIME ( 11, 51, 33.00000000000000000, #64 ) ;
#276 = DIRECTION ( 'NONE',  ( -1.000000000000000000, 0.000000000000000000, 0.000000000000000000 ) ) ;
#277 = VERTEX_POINT ( 'NONE', #13 ) ;
#278 = COORDINATED_UNIVERSAL_TIME_OFFSET ( 1, 0, .AHEAD. ) ;
#279 = CARTESIAN_POINT ( 'NONE',  ( 0.000000000000000000, 0.000000000000000000, 805.0000000000000000 ) ) ;
#280 = CARTESIAN_POINT ( 'NONE',  ( 0.000000000000000000, 0.000000000000000000, 5.000000000000000000 ) ) ;
#281 = PERSON_AND_ORGANIZATION_ROLE ( 'creator' ) ;
#282 = PRODUCT_DEFINITION_SHAPE ( 'NONE', 'NONE',  #209 ) ;
#283 = DIRECTION ( 'NONE',  ( 1.000000000000000000, 0.000000000000000000, 0.000000000000000000 ) ) ;
#284 = EDGE_CURVE ( 'NONE', #220, #16, #25, .T. ) ;
#285 = CIRCLE ( 'NONE', #6, 5.100000000000001421 ) ;
#286 = EDGE_LOOP ( 'NONE', ( #37, #187, #96, #235 ) ) ;
#287 = CC_DESIGN_APPROVAL ( #162, ( #175 ) ) ;
#288 = CC_DESIGN_DATE_AND_TIME_ASSIGNMENT ( #100, #24, ( #175 ) ) ;
#289 = ORIENTED_EDGE ( 'NONE', *, *, #68, .T. ) ;
#290 = ORIENTED_EDGE ( 'NONE', *, *, #17, .T. ) ;
#291 = AXIS2_PLACEMENT_3D ( 'NONE', #251, #59, #21 ) ;
#292 = EDGE_CURVE ( 'NONE', #294, #220, #231, .T. ) ;
#293 = DIRECTION ( 'NONE',  ( 1.000000000000000000, 0.000000000000000000, 0.000000000000000000 ) ) ;
#294 = VERTEX_POINT ( 'NONE', #232 ) ;
#295 = DIRECTION ( 'NONE',  ( 1.000000000000000000, 0.000000000000000000, 0.000000000000000000 ) ) ;
#296 = ORIENTED_EDGE ( 'NONE', *, *, #191, .F. ) ;
#297 = CARTESIAN_POINT ( 'NONE',  ( 0.000000000000000000, 0.000000000000000000, 5.199999999999982414 ) ) ;
#298 = EDGE_LOOP ( 'NONE', ( #296, #84, #26, #247 ) ) ;
#299 = APPROVAL_DATE_TIME ( #104, #55 ) ;
#300 = DIRECTION ( 'NONE',  ( 1.000000000000000000, 0.000000000000000000, -0.000000000000000000 ) ) ;
#301 = ORIENTED_EDGE ( 'NONE', *, *, #284, .F. ) ;
#302 = APPROVAL_STATUS ( 'not_yet_approved' ) ;
#303 = APPROVAL_ROLE ( '' ) ;
#304 = EDGE_CURVE ( 'NONE', #137, #125, #218, .T. ) ;
#305 = DIRECTION ( 'NONE',  ( 0.000000000000000000, 0.000000000000000000, 1.000000000000000000 ) ) ;
#306 = CYLINDRICAL_SURFACE ( 'NONE', #91, 8.000000000000000000 ) ;
#307 = CYLINDRICAL_SURFACE ( 'NONE', #245, 5.100000000000001421 ) ;
ENDSEC;
END-ISO-10303-21;
