ISO-10303-21;
HEADER;
FILE_DESCRIPTION (( 'STEP AP203' ),
    '1' );
FILE_NAME ('4a95.STEP',
    '2022-07-07T09:54:11',
    ( '' ),
    ( '' ),
    'SwSTEP 2.0',
    'SolidWorks 2019',
    '' );
FILE_SCHEMA (( 'CONFIG_CONTROL_DESIGN' ));
ENDSEC;

DATA;
#1 = SECURITY_CLASSIFICATION ( '', '', #120 ) ;
#2 = DIRECTION ( 'NONE',  ( 1.000000000000000000, 0.000000000000000000, 0.000000000000000000 ) ) ;
#3 = MECHANICAL_CONTEXT ( 'NONE', #16, 'mechanical' ) ;
#4 = DIRECTION ( 'NONE',  ( -1.000000000000000000, 0.000000000000000000, 0.000000000000000000 ) ) ;
#5 = DIRECTION ( 'NONE',  ( 1.000000000000000000, 0.000000000000000000, 0.000000000000000000 ) ) ;
#6 = EDGE_CURVE ( 'NONE', #226, #271, #23, .T. ) ;
#7 = DIRECTION ( 'NONE',  ( 0.000000000000000000, 0.000000000000000000, 1.000000000000000000 ) ) ;
#8 = COORDINATED_UNIVERSAL_TIME_OFFSET ( 1, 0, .AHEAD. ) ;
#9 = ORIENTED_EDGE ( 'NONE', *, *, #136, .T. ) ;
#10 = DIRECTION ( 'NONE',  ( 0.000000000000000000, 0.000000000000000000, -1.000000000000000000 ) ) ;
#11 = AXIS2_PLACEMENT_3D ( 'NONE', #116, #157, #44 ) ;
#12 = CARTESIAN_POINT ( 'NONE',  ( 0.000000000000000000, 0.000000000000000000, 505.0000000000000000 ) ) ;
#13 = EDGE_LOOP ( 'NONE', ( #87, #302, #137, #115 ) ) ;
#14 = DATE_AND_TIME ( #36, #273 ) ;
#15 = FACE_OUTER_BOUND ( 'NONE', #255, .T. ) ;
#16 = APPLICATION_CONTEXT ( 'configuration controlled 3d designs of mechanical parts and assemblies' ) ;
#17 = DATE_AND_TIME ( #305, #234 ) ;
#18 = EDGE_LOOP ( 'NONE', ( #154, #29, #161, #290 ) ) ;
#19 = DESIGN_CONTEXT ( 'detailed design', #27, 'design' ) ;
#20 = PERSON_AND_ORGANIZATION ( #170, #280 ) ;
#21 = AXIS2_PLACEMENT_3D ( 'NONE', #108, #56, #206 ) ;
#22 = CC_DESIGN_DATE_AND_TIME_ASSIGNMENT ( #17, #110, ( #284 ) ) ;
#23 = CIRCLE ( 'NONE', #111, 5.200000000000001066 ) ;
#24 = CC_DESIGN_APPROVAL ( #202, ( #222 ) ) ;
#25 = LINE ( 'NONE', #155, #168 ) ;
#26 = DIRECTION ( 'NONE',  ( 1.000000000000000000, 0.000000000000000000, 0.000000000000000000 ) ) ;
#27 = APPLICATION_CONTEXT ( 'configuration controlled 3d designs of mechanical parts and assemblies' ) ;
#28 =( NAMED_UNIT ( * ) PLANE_ANGLE_UNIT ( ) SI_UNIT ( $, .RADIAN. ) );
#29 = ORIENTED_EDGE ( 'NONE', *, *, #98, .T. ) ;
#30 = CIRCLE ( 'NONE', #240, 0.1999999999999996503 ) ;
#31 = FACE_OUTER_BOUND ( 'NONE', #13, .T. ) ;
#32 = VECTOR ( 'NONE', #209, 1000.000000000000000 ) ;
#33 = DIRECTION ( 'NONE',  ( 0.000000000000000000, -1.000000000000000000, 0.000000000000000000 ) ) ;
#34 = EDGE_LOOP ( 'NONE', ( #89, #300, #279, #252 ) ) ;
#35 = DIRECTION ( 'NONE',  ( 0.000000000000000000, 0.000000000000000000, 1.000000000000000000 ) ) ;
#36 = CALENDAR_DATE ( 2022, 7, 7 ) ;
#37 = ORIENTED_EDGE ( 'NONE', *, *, #6, .T. ) ;
#38 = DIRECTION ( 'NONE',  ( 1.000000000000000000, 0.000000000000000000, 0.000000000000000000 ) ) ;
#39 = CIRCLE ( 'NONE', #76, 8.000000000000000000 ) ;
#40 = CC_DESIGN_APPROVAL ( #107, ( #1 ) ) ;
#41 = CYLINDRICAL_SURFACE ( 'NONE', #49, 8.000000000000000000 ) ;
#42 = VERTEX_POINT ( 'NONE', #91 ) ;
#43 = PERSON_AND_ORGANIZATION ( #170, #280 ) ;
#44 = DIRECTION ( 'NONE',  ( 1.000000000000000000, 0.000000000000000000, -0.000000000000000000 ) ) ;
#45 = ADVANCED_FACE ( 'NONE', ( #63 ), #41, .T. ) ;
#46 = AXIS2_PLACEMENT_3D ( 'NONE', #12, #54, #146 ) ;
#47 = CC_DESIGN_APPROVAL ( #143, ( #284 ) ) ;
#48 = ADVANCED_FACE ( 'NONE', ( #15 ), #258, .T. ) ;
#49 = AXIS2_PLACEMENT_3D ( 'NONE', #186, #276, #235 ) ;
#50 = DIRECTION ( 'NONE',  ( 1.000000000000000000, 0.000000000000000000, 0.000000000000000000 ) ) ;
#51 =( GEOMETRIC_REPRESENTATION_CONTEXT ( 3 ) GLOBAL_UNCERTAINTY_ASSIGNED_CONTEXT ( ( #263 ) ) GLOBAL_UNIT_ASSIGNED_CONTEXT ( ( #80, #28, #147 ) ) REPRESENTATION_CONTEXT ( 'NONE', 'WORKASPACE' ) );
#52 = CARTESIAN_POINT ( 'NONE',  ( 5.000000000000000888, 6.123233995736767268E-16, 505.0000000000000000 ) ) ;
#53 = EDGE_LOOP ( 'NONE', ( #81, #210, #160, #299 ) ) ;
#54 = DIRECTION ( 'NONE',  ( -0.000000000000000000, -0.000000000000000000, -1.000000000000000000 ) ) ;
#55 = CARTESIAN_POINT ( 'NONE',  ( 0.000000000000000000, 0.000000000000000000, 0.000000000000000000 ) ) ;
#56 = DIRECTION ( 'NONE',  ( -0.000000000000000000, -0.000000000000000000, -1.000000000000000000 ) ) ;
#57 = LOCAL_TIME ( 11, 54, 11.00000000000000000, #118 ) ;
#58 = DIRECTION ( 'NONE',  ( 0.000000000000000000, 0.000000000000000000, 1.000000000000000000 ) ) ;
#59 = ORIENTED_EDGE ( 'NONE', *, *, #71, .T. ) ;
#60 = DIRECTION ( 'NONE',  ( -1.000000000000000000, 1.224646799147353454E-16, 0.000000000000000000 ) ) ;
#61 = COORDINATED_UNIVERSAL_TIME_OFFSET ( 1, 0, .AHEAD. ) ;
#62 = EDGE_CURVE ( 'NONE', #189, #134, #141, .T. ) ;
#63 = FACE_OUTER_BOUND ( 'NONE', #18, .T. ) ;
#64 = EDGE_LOOP ( 'NONE', ( #37, #293 ) ) ;
#65 = VECTOR ( 'NONE', #150, 1000.000000000000000 ) ;
#66 = ORIENTED_EDGE ( 'NONE', *, *, #70, .F. ) ;
#67 = AXIS2_PLACEMENT_3D ( 'NONE', #195, #296, #266 ) ;
#68 = DIRECTION ( 'NONE',  ( 0.000000000000000000, 0.000000000000000000, 1.000000000000000000 ) ) ;
#69 = ORIENTED_EDGE ( 'NONE', *, *, #156, .T. ) ;
#70 = EDGE_CURVE ( 'NONE', #298, #139, #260, .T. ) ;
#71 = EDGE_CURVE ( 'NONE', #42, #139, #25, .T. ) ;
#72 = CC_DESIGN_DATE_AND_TIME_ASSIGNMENT ( #14, #92, ( #1 ) ) ;
#73 = DIRECTION ( 'NONE',  ( 0.000000000000000000, 0.000000000000000000, 1.000000000000000000 ) ) ;
#74 = DIRECTION ( 'NONE',  ( 0.000000000000000000, 0.000000000000000000, 1.000000000000000000 ) ) ;
#75 = FACE_BOUND ( 'NONE', #64, .T. ) ;
#76 = AXIS2_PLACEMENT_3D ( 'NONE', #265, #73, #253 ) ;
#77 = CARTESIAN_POINT ( 'NONE',  ( 5.000000000000000888, 6.123233995736767268E-16, 5.199999999999982414 ) ) ;
#78 = ORIENTED_EDGE ( 'NONE', *, *, #175, .T. ) ;
#79 = FACE_OUTER_BOUND ( 'NONE', #211, .T. ) ;
#80 =( LENGTH_UNIT ( ) NAMED_UNIT ( * ) SI_UNIT ( .MILLI., .METRE. ) );
#81 = ORIENTED_EDGE ( 'NONE', *, *, #138, .F. ) ;
#82 = PRODUCT ( '4a95', '4a95', '', ( #3 ) ) ;
#83 = DIRECTION ( 'NONE',  ( 1.224646799147353207E-16, 1.000000000000000000, -0.000000000000000000 ) ) ;
#84 = CYLINDRICAL_SURFACE ( 'NONE', #230, 5.000000000000000888 ) ;
#85 = AXIS2_PLACEMENT_3D ( 'NONE', #264, #128, #50 ) ;
#86 = DATE_AND_TIME ( #303, #193 ) ;
#87 = ORIENTED_EDGE ( 'NONE', *, *, #167, .F. ) ;
#88 = PERSON_AND_ORGANIZATION_ROLE ( 'creator' ) ;
#89 = ORIENTED_EDGE ( 'NONE', *, *, #190, .F. ) ;
#90 = AXIS2_PLACEMENT_3D ( 'NONE', #131, #178, #26 ) ;
#91 = CARTESIAN_POINT ( 'NONE',  ( -8.000000000000000000, 0.000000000000000000, 5.000000000000000000 ) ) ;
#92 = DATE_TIME_ROLE ( 'classification_date' ) ;
#93 = CIRCLE ( 'NONE', #187, 5.000000000000000888 ) ;
#94 = PRODUCT_RELATED_PRODUCT_CATEGORY ( 'detail', '', ( #82 ) ) ;
#95 = DIRECTION ( 'NONE',  ( 1.000000000000000000, 0.000000000000000000, 0.000000000000000000 ) ) ;
#96 = PERSON_AND_ORGANIZATION ( #170, #280 ) ;
#97 = AXIS2_PLACEMENT_3D ( 'NONE', #254, #68, #38 ) ;
#98 = EDGE_CURVE ( 'NONE', #182, #298, #127, .T. ) ;
#99 = CLOSED_SHELL ( 'NONE', ( #301, #121, #45, #199, #183, #282, #122, #48, #306 ) ) ;
#100 = DIRECTION ( 'NONE',  ( 1.000000000000000000, 0.000000000000000000, -0.000000000000000000 ) ) ;
#101 = DIRECTION ( 'NONE',  ( 1.000000000000000000, 0.000000000000000000, 0.000000000000000000 ) ) ;
#102 = APPROVAL_ROLE ( '' ) ;
#103 = CARTESIAN_POINT ( 'NONE',  ( -5.000000000000000888, 0.000000000000000000, 505.0000000000000000 ) ) ;
#104 = DIRECTION ( 'NONE',  ( 0.000000000000000000, 0.000000000000000000, 1.000000000000000000 ) ) ;
#105 = CARTESIAN_POINT ( 'NONE',  ( 0.000000000000000000, 0.000000000000000000, 5.199999999999982414 ) ) ;
#106 = DATE_AND_TIME ( #109, #142 ) ;
#107 = APPROVAL ( #236, 'NEURÈENÝ' ) ;
#108 = CARTESIAN_POINT ( 'NONE',  ( 0.000000000000000000, 0.000000000000000000, 5.000000000000000000 ) ) ;
#109 = CALENDAR_DATE ( 2022, 7, 7 ) ;
#110 = DATE_TIME_ROLE ( 'creation_date' ) ;
#111 = AXIS2_PLACEMENT_3D ( 'NONE', #278, #304, #95 ) ;
#112 = CARTESIAN_POINT ( 'NONE',  ( 0.000000000000000000, 0.000000000000000000, 5.000000000000000000 ) ) ;
#113 = SHAPE_DEFINITION_REPRESENTATION ( #204, #295 ) ;
#114 = EDGE_LOOP ( 'NONE', ( #246, #66 ) ) ;
#115 = ORIENTED_EDGE ( 'NONE', *, *, #213, .T. ) ;
#116 = CARTESIAN_POINT ( 'NONE',  ( 0.000000000000000000, 0.000000000000000000, 505.0000000000000000 ) ) ;
#117 = CC_DESIGN_PERSON_AND_ORGANIZATION_ASSIGNMENT ( #20, #88, ( #222 ) ) ;
#118 = COORDINATED_UNIVERSAL_TIME_OFFSET ( 1, 0, .AHEAD. ) ;
#119 = EDGE_LOOP ( 'NONE', ( #78, #69 ) ) ;
#120 = SECURITY_CLASSIFICATION_LEVEL ( 'unclassified' ) ;
#121 = ADVANCED_FACE ( 'NONE', ( #229 ), #84, .T. ) ;
#122 = ADVANCED_FACE ( 'NONE', ( #31 ), #285, .T. ) ;
#123 = CIRCLE ( 'NONE', #249, 5.000000000000000888 ) ;
#124 = AXIS2_PLACEMENT_3D ( 'NONE', #172, #201, #244 ) ;
#125 = DIRECTION ( 'NONE',  ( 0.000000000000000000, 0.000000000000000000, 1.000000000000000000 ) ) ;
#126 = CARTESIAN_POINT ( 'NONE',  ( 0.000000000000000000, 0.000000000000000000, 0.000000000000000000 ) ) ;
#127 = LINE ( 'NONE', #247, #65 ) ;
#128 = DIRECTION ( 'NONE',  ( -0.000000000000000000, -0.000000000000000000, -1.000000000000000000 ) ) ;
#129 = CIRCLE ( 'NONE', #67, 8.000000000000000000 ) ;
#130 = PERSON_AND_ORGANIZATION ( #170, #280 ) ;
#131 = CARTESIAN_POINT ( 'NONE',  ( 0.000000000000000000, 0.000000000000000000, 505.0000000000000000 ) ) ;
#132 = FACE_OUTER_BOUND ( 'NONE', #184, .T. ) ;
#133 = DIRECTION ( 'NONE',  ( 1.000000000000000000, 0.000000000000000000, 0.000000000000000000 ) ) ;
#134 = VERTEX_POINT ( 'NONE', #242 ) ;
#135 = ORIENTED_EDGE ( 'NONE', *, *, #307, .T. ) ;
#136 = EDGE_CURVE ( 'NONE', #189, #148, #185, .T. ) ;
#137 = ORIENTED_EDGE ( 'NONE', *, *, #62, .T. ) ;
#138 = EDGE_CURVE ( 'NONE', #134, #271, #30, .T. ) ;
#139 = VERTEX_POINT ( 'NONE', #220 ) ;
#140 = COORDINATED_UNIVERSAL_TIME_OFFSET ( 1, 0, .AHEAD. ) ;
#141 = LINE ( 'NONE', #180, #196 ) ;
#142 = LOCAL_TIME ( 11, 54, 11.00000000000000000, #8 ) ;
#143 = APPROVAL ( #225, 'NEURÈENÝ' ) ;
#144 = CIRCLE ( 'NONE', #85, 5.200000000000001066 ) ;
#145 = DIRECTION ( 'NONE',  ( 1.000000000000000000, 0.000000000000000000, 0.000000000000000000 ) ) ;
#146 = DIRECTION ( 'NONE',  ( -1.000000000000000000, 0.000000000000000000, 0.000000000000000000 ) ) ;
#147 =( NAMED_UNIT ( * ) SI_UNIT ( $, .STERADIAN. ) SOLID_ANGLE_UNIT ( ) );
#148 = VERTEX_POINT ( 'NONE', #52 ) ;
#149 = FACE_OUTER_BOUND ( 'NONE', #119, .T. ) ;
#150 = DIRECTION ( 'NONE',  ( -0.000000000000000000, -0.000000000000000000, -1.000000000000000000 ) ) ;
#151 = AXIS2_PLACEMENT_3D ( 'NONE', #289, #74, #292 ) ;
#152 = CC_DESIGN_SECURITY_CLASSIFICATION ( #1, ( #222 ) ) ;
#153 = PERSON_AND_ORGANIZATION ( #170, #280 ) ;
#154 = ORIENTED_EDGE ( 'NONE', *, *, #156, .F. ) ;
#155 = CARTESIAN_POINT ( 'NONE',  ( -8.000000000000000000, 0.000000000000000000, 5.000000000000000000 ) ) ;
#156 = EDGE_CURVE ( 'NONE', #182, #42, #164, .T. ) ;
#157 = DIRECTION ( 'NONE',  ( 0.000000000000000000, 0.000000000000000000, 1.000000000000000000 ) ) ;
#158 = CALENDAR_DATE ( 2022, 7, 7 ) ;
#159 = EDGE_CURVE ( 'NONE', #271, #226, #144, .T. ) ;
#160 = ORIENTED_EDGE ( 'NONE', *, *, #166, .T. ) ;
#161 = ORIENTED_EDGE ( 'NONE', *, *, #70, .T. ) ;
#162 = APPROVAL_STATUS ( 'not_yet_approved' ) ;
#163 = ORIENTED_EDGE ( 'NONE', *, *, #190, .T. ) ;
#164 = CIRCLE ( 'NONE', #272, 8.000000000000000000 ) ;
#165 = APPROVAL_PERSON_ORGANIZATION ( #130, #143, #102 ) ;
#166 = EDGE_CURVE ( 'NONE', #277, #226, #179, .T. ) ;
#167 = EDGE_CURVE ( 'NONE', #148, #277, #291, .T. ) ;
#168 = VECTOR ( 'NONE', #227, 1000.000000000000000 ) ;
#169 = AXIS2_PLACEMENT_3D ( 'NONE', #207, #104, #287 ) ;
#170 = PERSON ( 'NEURÈENÝ', 'NEURÈENÝ', 'NEURÈENÝ', ('NEURÈENÝ'), ('NEURÈENÝ'), ('NEURÈENÝ') ) ;
#171 = PLANE ( 'NONE',  #124 ) ;
#172 = CARTESIAN_POINT ( 'NONE',  ( 0.000000000000000000, 0.000000000000000000, 5.000000000000000000 ) ) ;
#173 = CARTESIAN_POINT ( 'NONE',  ( 8.000000000000000000, 9.797174393178825657E-16, 0.000000000000000000 ) ) ;
#174 = CYLINDRICAL_SURFACE ( 'NONE', #21, 8.000000000000000000 ) ;
#175 = EDGE_CURVE ( 'NONE', #42, #182, #39, .T. ) ;
#176 = CARTESIAN_POINT ( 'NONE',  ( 5.000000000000000888, 6.123233995736767268E-16, 505.0000000000000000 ) ) ;
#177 = FACE_OUTER_BOUND ( 'NONE', #114, .T. ) ;
#178 = DIRECTION ( 'NONE',  ( 0.000000000000000000, 0.000000000000000000, 1.000000000000000000 ) ) ;
#179 = CIRCLE ( 'NONE', #262, 0.1999999999999996503 ) ;
#180 = CARTESIAN_POINT ( 'NONE',  ( -5.000000000000000888, 0.000000000000000000, 505.0000000000000000 ) ) ;
#181 = APPROVAL_ROLE ( '' ) ;
#182 = VERTEX_POINT ( 'NONE', #269 ) ;
#183 = ADVANCED_FACE ( 'NONE', ( #75, #149 ), #171, .T. ) ;
#184 = EDGE_LOOP ( 'NONE', ( #233, #256, #232, #237 ) ) ;
#185 = CIRCLE ( 'NONE', #90, 5.000000000000000888 ) ;
#186 = CARTESIAN_POINT ( 'NONE',  ( 0.000000000000000000, 0.000000000000000000, 5.000000000000000000 ) ) ;
#187 = AXIS2_PLACEMENT_3D ( 'NONE', #224, #7, #145 ) ;
#188 = APPROVAL_DATE_TIME ( #86, #107 ) ;
#189 = VERTEX_POINT ( 'NONE', #103 ) ;
#190 = EDGE_CURVE ( 'NONE', #148, #189, #217, .T. ) ;
#191 = CC_DESIGN_PERSON_AND_ORGANIZATION_ASSIGNMENT ( #216, #208, ( #1 ) ) ;
#192 = APPROVAL_PERSON_ORGANIZATION ( #96, #202, #257 ) ;
#193 = LOCAL_TIME ( 11, 54, 11.00000000000000000, #275 ) ;
#194 = CC_DESIGN_PERSON_AND_ORGANIZATION_ASSIGNMENT ( #251, #270, ( #284 ) ) ;
#195 = CARTESIAN_POINT ( 'NONE',  ( 0.000000000000000000, 0.000000000000000000, 0.000000000000000000 ) ) ;
#196 = VECTOR ( 'NONE', #239, 1000.000000000000000 ) ;
#197 = CARTESIAN_POINT ( 'NONE',  ( 5.200000000000001066, 0.000000000000000000, 4.999999999999991118 ) ) ;
#198 = PLANE ( 'NONE',  #286 ) ;
#199 = ADVANCED_FACE ( 'NONE', ( #79 ), #174, .T. ) ;
#200 = TOROIDAL_SURFACE ( 'NONE', #169, 5.200000000000001066, 0.2000000000000000111 ) ;
#201 = DIRECTION ( 'NONE',  ( 0.000000000000000000, 0.000000000000000000, 1.000000000000000000 ) ) ;
#202 = APPROVAL ( #162, 'NEURÈENÝ' ) ;
#203 = CARTESIAN_POINT ( 'NONE',  ( -5.200000000000001066, 6.368163355566237368E-16, 4.999999999999991118 ) ) ;
#204 = PRODUCT_DEFINITION_SHAPE ( 'NONE', 'NONE',  #284 ) ;
#205 = APPROVAL_DATE_TIME ( #106, #143 ) ;
#206 = DIRECTION ( 'NONE',  ( -1.000000000000000000, 0.000000000000000000, 0.000000000000000000 ) ) ;
#207 = CARTESIAN_POINT ( 'NONE',  ( 0.000000000000000000, 0.000000000000000000, 5.199999999999982414 ) ) ;
#208 = PERSON_AND_ORGANIZATION_ROLE ( 'classification_officer' ) ;
#209 = DIRECTION ( 'NONE',  ( -0.000000000000000000, -0.000000000000000000, -1.000000000000000000 ) ) ;
#210 = ORIENTED_EDGE ( 'NONE', *, *, #261, .F. ) ;
#211 = EDGE_LOOP ( 'NONE', ( #214, #281, #59, #135 ) ) ;
#212 = APPROVAL_DATE_TIME ( #231, #202 ) ;
#213 = EDGE_CURVE ( 'NONE', #134, #277, #93, .T. ) ;
#214 = ORIENTED_EDGE ( 'NONE', *, *, #98, .F. ) ;
#215 = AXIS2_PLACEMENT_3D ( 'NONE', #288, #125, #101 ) ;
#216 = PERSON_AND_ORGANIZATION ( #170, #280 ) ;
#217 = CIRCLE ( 'NONE', #215, 5.000000000000000888 ) ;
#218 = DIRECTION ( 'NONE',  ( 0.000000000000000000, 0.000000000000000000, 1.000000000000000000 ) ) ;
#219 = APPLICATION_PROTOCOL_DEFINITION ( 'international standard', 'config_control_design', 1994, #16 ) ;
#220 = CARTESIAN_POINT ( 'NONE',  ( -8.000000000000000000, 0.000000000000000000, 0.000000000000000000 ) ) ;
#221 = CC_DESIGN_PERSON_AND_ORGANIZATION_ASSIGNMENT ( #43, #238, ( #222 ) ) ;
#222 = PRODUCT_DEFINITION_FORMATION_WITH_SPECIFIED_SOURCE ( 'LIBOVOLNÝ', '', #82, .NOT_KNOWN. ) ;
#223 = APPROVAL_PERSON_ORGANIZATION ( #297, #107, #181 ) ;
#224 = CARTESIAN_POINT ( 'NONE',  ( 0.000000000000000000, 0.000000000000000000, 5.199999999999982414 ) ) ;
#225 = APPROVAL_STATUS ( 'not_yet_approved' ) ;
#226 = VERTEX_POINT ( 'NONE', #197 ) ;
#227 = DIRECTION ( 'NONE',  ( -0.000000000000000000, -0.000000000000000000, -1.000000000000000000 ) ) ;
#228 = FACE_OUTER_BOUND ( 'NONE', #53, .T. ) ;
#229 = FACE_OUTER_BOUND ( 'NONE', #34, .T. ) ;
#230 = AXIS2_PLACEMENT_3D ( 'NONE', #294, #250, #4 ) ;
#231 = DATE_AND_TIME ( #158, #57 ) ;
#232 = ORIENTED_EDGE ( 'NONE', *, *, #6, .F. ) ;
#233 = ORIENTED_EDGE ( 'NONE', *, *, #213, .F. ) ;
#234 = LOCAL_TIME ( 11, 54, 11.00000000000000000, #140 ) ;
#235 = DIRECTION ( 'NONE',  ( -1.000000000000000000, 0.000000000000000000, 0.000000000000000000 ) ) ;
#236 = APPROVAL_STATUS ( 'not_yet_approved' ) ;
#237 = ORIENTED_EDGE ( 'NONE', *, *, #166, .F. ) ;
#238 = PERSON_AND_ORGANIZATION_ROLE ( 'design_supplier' ) ;
#239 = DIRECTION ( 'NONE',  ( -0.000000000000000000, -0.000000000000000000, -1.000000000000000000 ) ) ;
#240 = AXIS2_PLACEMENT_3D ( 'NONE', #267, #83, #60 ) ;
#241 = AXIS2_PLACEMENT_3D ( 'NONE', #126, #58, #5 ) ;
#242 = CARTESIAN_POINT ( 'NONE',  ( -5.000000000000000888, 0.000000000000000000, 5.199999999999982414 ) ) ;
#243 = DIRECTION ( 'NONE',  ( 0.000000000000000000, 0.000000000000000000, 1.000000000000000000 ) ) ;
#244 = DIRECTION ( 'NONE',  ( 1.000000000000000000, 0.000000000000000000, -0.000000000000000000 ) ) ;
#245 = CC_DESIGN_PERSON_AND_ORGANIZATION_ASSIGNMENT ( #153, #268, ( #82 ) ) ;
#246 = ORIENTED_EDGE ( 'NONE', *, *, #307, .F. ) ;
#247 = CARTESIAN_POINT ( 'NONE',  ( 8.000000000000000000, 9.797174393178825657E-16, 5.000000000000000000 ) ) ;
#248 = APPLICATION_PROTOCOL_DEFINITION ( 'international standard', 'config_control_design', 1994, #27 ) ;
#249 = AXIS2_PLACEMENT_3D ( 'NONE', #105, #218, #2 ) ;
#250 = DIRECTION ( 'NONE',  ( -0.000000000000000000, -0.000000000000000000, -1.000000000000000000 ) ) ;
#251 = PERSON_AND_ORGANIZATION ( #170, #280 ) ;
#252 = ORIENTED_EDGE ( 'NONE', *, *, #62, .F. ) ;
#253 = DIRECTION ( 'NONE',  ( 1.000000000000000000, 0.000000000000000000, 0.000000000000000000 ) ) ;
#254 = CARTESIAN_POINT ( 'NONE',  ( 0.000000000000000000, 0.000000000000000000, 0.000000000000000000 ) ) ;
#255 = EDGE_LOOP ( 'NONE', ( #9, #163 ) ) ;
#256 = ORIENTED_EDGE ( 'NONE', *, *, #138, .T. ) ;
#257 = APPROVAL_ROLE ( '' ) ;
#258 = PLANE ( 'NONE',  #11 ) ;
#259 = MANIFOLD_SOLID_BREP ( 'Zaoblit1', #99 ) ;
#260 = CIRCLE ( 'NONE', #97, 8.000000000000000000 ) ;
#261 = EDGE_CURVE ( 'NONE', #277, #134, #123, .T. ) ;
#262 = AXIS2_PLACEMENT_3D ( 'NONE', #274, #33, #10 ) ;
#263 = UNCERTAINTY_MEASURE_WITH_UNIT (LENGTH_MEASURE( 1.000000000000000082E-05 ), #80, 'distance_accuracy_value', 'NONE');
#264 = CARTESIAN_POINT ( 'NONE',  ( 0.000000000000000000, 0.000000000000000000, 5.000000000000000000 ) ) ;
#265 = CARTESIAN_POINT ( 'NONE',  ( 0.000000000000000000, 0.000000000000000000, 5.000000000000000000 ) ) ;
#266 = DIRECTION ( 'NONE',  ( 1.000000000000000000, 0.000000000000000000, 0.000000000000000000 ) ) ;
#267 = CARTESIAN_POINT ( 'NONE',  ( -5.200000000000001066, 6.368163355566237368E-16, 5.199999999999982414 ) ) ;
#268 = PERSON_AND_ORGANIZATION_ROLE ( 'design_owner' ) ;
#269 = CARTESIAN_POINT ( 'NONE',  ( 8.000000000000000000, 9.797174393178825657E-16, 5.000000000000000000 ) ) ;
#270 = PERSON_AND_ORGANIZATION_ROLE ( 'creator' ) ;
#271 = VERTEX_POINT ( 'NONE', #203 ) ;
#272 = AXIS2_PLACEMENT_3D ( 'NONE', #112, #35, #133 ) ;
#273 = LOCAL_TIME ( 11, 54, 11.00000000000000000, #61 ) ;
#274 = CARTESIAN_POINT ( 'NONE',  ( 5.200000000000001066, 0.000000000000000000, 5.199999999999982414 ) ) ;
#275 = COORDINATED_UNIVERSAL_TIME_OFFSET ( 1, 0, .AHEAD. ) ;
#276 = DIRECTION ( 'NONE',  ( -0.000000000000000000, -0.000000000000000000, -1.000000000000000000 ) ) ;
#277 = VERTEX_POINT ( 'NONE', #77 ) ;
#278 = CARTESIAN_POINT ( 'NONE',  ( 0.000000000000000000, 0.000000000000000000, 5.000000000000000000 ) ) ;
#279 = ORIENTED_EDGE ( 'NONE', *, *, #261, .T. ) ;
#280 = ORGANIZATION ( 'NEURÈENÝ', 'NEURÈENÝ', '' ) ;
#281 = ORIENTED_EDGE ( 'NONE', *, *, #175, .F. ) ;
#282 = ADVANCED_FACE ( 'NONE', ( #177 ), #198, .F. ) ;
#283 = TOROIDAL_SURFACE ( 'NONE', #151, 5.200000000000001066, 0.2000000000000000111 ) ;
#284 = PRODUCT_DEFINITION ( 'NEZNÁMÝ', '', #222, #19 ) ;
#285 = CYLINDRICAL_SURFACE ( 'NONE', #46, 5.000000000000000888 ) ;
#286 = AXIS2_PLACEMENT_3D ( 'NONE', #55, #243, #100 ) ;
#287 = DIRECTION ( 'NONE',  ( 1.000000000000000000, 0.000000000000000000, 0.000000000000000000 ) ) ;
#288 = CARTESIAN_POINT ( 'NONE',  ( 0.000000000000000000, 0.000000000000000000, 505.0000000000000000 ) ) ;
#289 = CARTESIAN_POINT ( 'NONE',  ( 0.000000000000000000, 0.000000000000000000, 5.199999999999982414 ) ) ;
#290 = ORIENTED_EDGE ( 'NONE', *, *, #71, .F. ) ;
#291 = LINE ( 'NONE', #176, #32 ) ;
#292 = DIRECTION ( 'NONE',  ( 1.000000000000000000, 0.000000000000000000, 0.000000000000000000 ) ) ;
#293 = ORIENTED_EDGE ( 'NONE', *, *, #159, .T. ) ;
#294 = CARTESIAN_POINT ( 'NONE',  ( 0.000000000000000000, 0.000000000000000000, 505.0000000000000000 ) ) ;
#295 = ADVANCED_BREP_SHAPE_REPRESENTATION ( '4a95', ( #259, #241 ), #51 ) ;
#296 = DIRECTION ( 'NONE',  ( 0.000000000000000000, 0.000000000000000000, 1.000000000000000000 ) ) ;
#297 = PERSON_AND_ORGANIZATION ( #170, #280 ) ;
#298 = VERTEX_POINT ( 'NONE', #173 ) ;
#299 = ORIENTED_EDGE ( 'NONE', *, *, #159, .F. ) ;
#300 = ORIENTED_EDGE ( 'NONE', *, *, #167, .T. ) ;
#301 = ADVANCED_FACE ( 'NONE', ( #132 ), #200, .F. ) ;
#302 = ORIENTED_EDGE ( 'NONE', *, *, #136, .F. ) ;
#303 = CALENDAR_DATE ( 2022, 7, 7 ) ;
#304 = DIRECTION ( 'NONE',  ( -0.000000000000000000, -0.000000000000000000, -1.000000000000000000 ) ) ;
#305 = CALENDAR_DATE ( 2022, 7, 7 ) ;
#306 = ADVANCED_FACE ( 'NONE', ( #228 ), #283, .F. ) ;
#307 = EDGE_CURVE ( 'NONE', #139, #298, #129, .T. ) ;
ENDSEC;
END-ISO-10303-21;
