ISO-10303-21;
HEADER;
FILE_DESCRIPTION (( 'STEP AP203' ),
    '1' );
FILE_NAME ('838b.STEP',
    '2023-02-12T12:25:58',
    ( '' ),
    ( '' ),
    'SwSTEP 2.0',
    'SolidWorks 2019',
    '' );
FILE_SCHEMA (( 'CONFIG_CONTROL_DESIGN' ));
ENDSEC;

DATA;
#1 = ORIENTED_EDGE ( 'NONE', *, *, #18, .T. ) ;
#2 = CC_DESIGN_PERSON_AND_ORGANIZATION_ASSIGNMENT ( #244, #58, ( #165 ) ) ;
#3 = APPROVAL_STATUS ( 'not_yet_approved' ) ;
#4 = ORIENTED_EDGE ( 'NONE', *, *, #73, .F. ) ;
#5 = CIRCLE ( 'NONE', #160, 5.000000000000000000 ) ;
#6 = CARTESIAN_POINT ( 'NONE',  ( -5.000000000000000000, 0.000000000000000000, 3.000000000000000000 ) ) ;
#7 = EDGE_CURVE ( 'NONE', #19, #174, #53, .T. ) ;
#8 = APPROVAL_DATE_TIME ( #175, #39 ) ;
#9 = CARTESIAN_POINT ( 'NONE',  ( -5.000000000000000000, 0.000000000000000000, 3.000000000000000000 ) ) ;
#10 = EDGE_CURVE ( 'NONE', #211, #81, #95, .T. ) ;
#11 = DIRECTION ( 'NONE',  ( -0.000000000000000000, -0.000000000000000000, -1.000000000000000000 ) ) ;
#12 = CARTESIAN_POINT ( 'NONE',  ( -2.750000000000000000, 0.000000000000000000, 100.0000000000000000 ) ) ;
#13 = EDGE_LOOP ( 'NONE', ( #170, #158 ) ) ;
#14 = DIRECTION ( 'NONE',  ( 1.000000000000000000, 0.000000000000000000, -0.000000000000000000 ) ) ;
#15 = CC_DESIGN_APPROVAL ( #189, ( #165 ) ) ;
#16 = ADVANCED_FACE ( 'NONE', ( #61 ), #107, .T. ) ;
#17 = EDGE_CURVE ( 'NONE', #174, #115, #182, .T. ) ;
#18 = EDGE_CURVE ( 'NONE', #35, #19, #5, .T. ) ;
#19 = VERTEX_POINT ( 'NONE', #162 ) ;
#20 = CC_DESIGN_PERSON_AND_ORGANIZATION_ASSIGNMENT ( #161, #80, ( #87 ) ) ;
#21 =( LENGTH_UNIT ( ) NAMED_UNIT ( * ) SI_UNIT ( .MILLI., .METRE. ) );
#22 = DATE_AND_TIME ( #117, #133 ) ;
#23 = CC_DESIGN_DATE_AND_TIME_ASSIGNMENT ( #142, #173, ( #165 ) ) ;
#24 = DIRECTION ( 'NONE',  ( 1.000000000000000000, 0.000000000000000000, -0.000000000000000000 ) ) ;
#25 = CYLINDRICAL_SURFACE ( 'NONE', #208, 5.000000000000000000 ) ;
#26 = CC_DESIGN_APPROVAL ( #203, ( #76 ) ) ;
#27 = DIRECTION ( 'NONE',  ( 1.000000000000000000, 0.000000000000000000, 0.000000000000000000 ) ) ;
#28 = PERSON_AND_ORGANIZATION ( #218, #252 ) ;
#29 = COORDINATED_UNIVERSAL_TIME_OFFSET ( 1, 0, .AHEAD. ) ;
#30 = CARTESIAN_POINT ( 'NONE',  ( 0.000000000000000000, 0.000000000000000000, 0.000000000000000000 ) ) ;
#31 = CC_DESIGN_PERSON_AND_ORGANIZATION_ASSIGNMENT ( #141, #201, ( #76 ) ) ;
#32 = CARTESIAN_POINT ( 'NONE',  ( 0.000000000000000000, 0.000000000000000000, 100.0000000000000000 ) ) ;
#33 = DIRECTION ( 'NONE',  ( 1.000000000000000000, 0.000000000000000000, 0.000000000000000000 ) ) ;
#34 = ORIENTED_EDGE ( 'NONE', *, *, #73, .T. ) ;
#35 = VERTEX_POINT ( 'NONE', #6 ) ;
#36 = APPROVAL_PERSON_ORGANIZATION ( #206, #203, #108 ) ;
#37 = ORIENTED_EDGE ( 'NONE', *, *, #239, .T. ) ;
#38 = FACE_OUTER_BOUND ( 'NONE', #13, .T. ) ;
#39 = APPROVAL ( #241, 'NEURÈENÝ' ) ;
#40 = APPROVAL_DATE_TIME ( #220, #189 ) ;
#41 = DIRECTION ( 'NONE',  ( 0.000000000000000000, 0.000000000000000000, 1.000000000000000000 ) ) ;
#42 = PERSON_AND_ORGANIZATION ( #218, #252 ) ;
#43 = VECTOR ( 'NONE', #178, 1000.000000000000000 ) ;
#44 = DIRECTION ( 'NONE',  ( 0.000000000000000000, 0.000000000000000000, 1.000000000000000000 ) ) ;
#45 = FACE_BOUND ( 'NONE', #129, .T. ) ;
#46 = DIRECTION ( 'NONE',  ( 0.000000000000000000, 0.000000000000000000, 1.000000000000000000 ) ) ;
#47 = UNCERTAINTY_MEASURE_WITH_UNIT (LENGTH_MEASURE( 1.000000000000000082E-05 ), #21, 'distance_accuracy_value', 'NONE');
#48 = DIRECTION ( 'NONE',  ( 0.000000000000000000, 0.000000000000000000, 1.000000000000000000 ) ) ;
#49 = EDGE_LOOP ( 'NONE', ( #253, #246, #37, #78 ) ) ;
#50 = LINE ( 'NONE', #12, #200 ) ;
#51 = DIRECTION ( 'NONE',  ( -1.000000000000000000, 0.000000000000000000, 0.000000000000000000 ) ) ;
#52 = AXIS2_PLACEMENT_3D ( 'NONE', #163, #69, #126 ) ;
#53 = LINE ( 'NONE', #132, #43 ) ;
#54 = VECTOR ( 'NONE', #60, 1000.000000000000000 ) ;
#55 = LOCAL_TIME ( 13, 25, 58.00000000000000000, #29 ) ;
#56 = ADVANCED_FACE ( 'NONE', ( #38 ), #198, .F. ) ;
#57 = AXIS2_PLACEMENT_3D ( 'NONE', #128, #217, #113 ) ;
#58 = PERSON_AND_ORGANIZATION_ROLE ( 'classification_officer' ) ;
#59 = ORIENTED_EDGE ( 'NONE', *, *, #239, .F. ) ;
#60 = DIRECTION ( 'NONE',  ( -0.000000000000000000, -0.000000000000000000, -1.000000000000000000 ) ) ;
#61 = FACE_OUTER_BOUND ( 'NONE', #238, .T. ) ;
#62 = MANIFOLD_SOLID_BREP ( 'Pøidat vysunutím3', #109 ) ;
#63 = PERSON_AND_ORGANIZATION ( #218, #252 ) ;
#64 = AXIS2_PLACEMENT_3D ( 'NONE', #30, #44, #105 ) ;
#65 = CARTESIAN_POINT ( 'NONE',  ( 0.000000000000000000, 0.000000000000000000, 3.000000000000000000 ) ) ;
#66 = SECURITY_CLASSIFICATION_LEVEL ( 'unclassified' ) ;
#67 = ORIENTED_EDGE ( 'NONE', *, *, #195, .F. ) ;
#68 = CIRCLE ( 'NONE', #230, 5.000000000000000000 ) ;
#69 = DIRECTION ( 'NONE',  ( 0.000000000000000000, 0.000000000000000000, 1.000000000000000000 ) ) ;
#70 = CARTESIAN_POINT ( 'NONE',  ( 0.000000000000000000, 0.000000000000000000, 100.0000000000000000 ) ) ;
#71 = AXIS2_PLACEMENT_3D ( 'NONE', #70, #210, #111 ) ;
#72 = EDGE_LOOP ( 'NONE', ( #1, #34 ) ) ;
#73 = EDGE_CURVE ( 'NONE', #19, #35, #196, .T. ) ;
#74 = ORIENTED_EDGE ( 'NONE', *, *, #179, .T. ) ;
#75 = AXIS2_PLACEMENT_3D ( 'NONE', #136, #159, #224 ) ;
#76 = PRODUCT_DEFINITION_FORMATION_WITH_SPECIFIED_SOURCE ( 'LIBOVOLNÝ', '', #148, .NOT_KNOWN. ) ;
#77 = APPROVAL_ROLE ( '' ) ;
#78 = ORIENTED_EDGE ( 'NONE', *, *, #171, .T. ) ;
#79 = DATE_AND_TIME ( #125, #199 ) ;
#80 = PERSON_AND_ORGANIZATION_ROLE ( 'creator' ) ;
#81 = VERTEX_POINT ( 'NONE', #106 ) ;
#82 = DIRECTION ( 'NONE',  ( 1.000000000000000000, 0.000000000000000000, -0.000000000000000000 ) ) ;
#83 = DIRECTION ( 'NONE',  ( -0.000000000000000000, -0.000000000000000000, -1.000000000000000000 ) ) ;
#84 = COORDINATED_UNIVERSAL_TIME_OFFSET ( 1, 0, .AHEAD. ) ;
#85 = CIRCLE ( 'NONE', #52, 2.750000000000000000 ) ;
#86 = DIRECTION ( 'NONE',  ( 0.000000000000000000, 0.000000000000000000, 1.000000000000000000 ) ) ;
#87 = PRODUCT_DEFINITION ( 'NEZNÁMÝ', '', #76, #233 ) ;
#88 = EDGE_LOOP ( 'NONE', ( #4, #98, #130, #59 ) ) ;
#89 = APPROVAL_PERSON_ORGANIZATION ( #28, #189, #245 ) ;
#90 = DIRECTION ( 'NONE',  ( -0.000000000000000000, -0.000000000000000000, -1.000000000000000000 ) ) ;
#91 = ORIENTED_EDGE ( 'NONE', *, *, #172, .T. ) ;
#92 = AXIS2_PLACEMENT_3D ( 'NONE', #225, #83, #250 ) ;
#93 =( NAMED_UNIT ( * ) SI_UNIT ( $, .STERADIAN. ) SOLID_ANGLE_UNIT ( ) );
#94 = ADVANCED_FACE ( 'NONE', ( #45, #123 ), #180, .T. ) ;
#95 = CIRCLE ( 'NONE', #223, 2.750000000000000000 ) ;
#96 = ADVANCED_BREP_SHAPE_REPRESENTATION ( '838b', ( #62, #64 ), #100 ) ;
#97 = PERSON_AND_ORGANIZATION_ROLE ( 'creator' ) ;
#98 = ORIENTED_EDGE ( 'NONE', *, *, #7, .T. ) ;
#99 = CARTESIAN_POINT ( 'NONE',  ( 0.000000000000000000, 0.000000000000000000, 3.000000000000000000 ) ) ;
#100 =( GEOMETRIC_REPRESENTATION_CONTEXT ( 3 ) GLOBAL_UNCERTAINTY_ASSIGNED_CONTEXT ( ( #47 ) ) GLOBAL_UNIT_ASSIGNED_CONTEXT ( ( #21, #139, #93 ) ) REPRESENTATION_CONTEXT ( 'NONE', 'WORKASPACE' ) );
#101 = MECHANICAL_CONTEXT ( 'NONE', #116, 'mechanical' ) ;
#102 = CC_DESIGN_SECURITY_CLASSIFICATION ( #165, ( #76 ) ) ;
#103 = LINE ( 'NONE', #9, #54 ) ;
#104 = CARTESIAN_POINT ( 'NONE',  ( 0.000000000000000000, 0.000000000000000000, 100.0000000000000000 ) ) ;
#105 = DIRECTION ( 'NONE',  ( 1.000000000000000000, 0.000000000000000000, 0.000000000000000000 ) ) ;
#106 = CARTESIAN_POINT ( 'NONE',  ( 2.750000000000000000, 3.367778697655220519E-16, 100.0000000000000000 ) ) ;
#107 = PLANE ( 'NONE',  #247 ) ;
#108 = APPROVAL_ROLE ( '' ) ;
#109 = CLOSED_SHELL ( 'NONE', ( #209, #228, #219, #94, #56, #186, #16 ) ) ;
#110 = FACE_OUTER_BOUND ( 'NONE', #215, .T. ) ;
#111 = DIRECTION ( 'NONE',  ( 1.000000000000000000, 0.000000000000000000, 0.000000000000000000 ) ) ;
#112 = AXIS2_PLACEMENT_3D ( 'NONE', #184, #11, #51 ) ;
#113 = DIRECTION ( 'NONE',  ( -1.000000000000000000, 0.000000000000000000, 0.000000000000000000 ) ) ;
#114 = ORIENTED_EDGE ( 'NONE', *, *, #154, .F. ) ;
#115 = VERTEX_POINT ( 'NONE', #229 ) ;
#116 = APPLICATION_CONTEXT ( 'configuration controlled 3d designs of mechanical parts and assemblies' ) ;
#117 = CALENDAR_DATE ( 2023, 12, 2 ) ;
#118 = DIRECTION ( 'NONE',  ( 0.000000000000000000, 0.000000000000000000, 1.000000000000000000 ) ) ;
#119 = CIRCLE ( 'NONE', #168, 2.750000000000000000 ) ;
#120 = DATE_TIME_ROLE ( 'creation_date' ) ;
#121 = DIRECTION ( 'NONE',  ( 1.000000000000000000, 0.000000000000000000, 0.000000000000000000 ) ) ;
#122 = APPROVAL_STATUS ( 'not_yet_approved' ) ;
#123 = FACE_OUTER_BOUND ( 'NONE', #72, .T. ) ;
#124 = CYLINDRICAL_SURFACE ( 'NONE', #112, 2.750000000000000000 ) ;
#125 = CALENDAR_DATE ( 2023, 12, 2 ) ;
#126 = DIRECTION ( 'NONE',  ( 1.000000000000000000, 0.000000000000000000, 0.000000000000000000 ) ) ;
#127 = PRODUCT_DEFINITION_SHAPE ( 'NONE', 'NONE',  #87 ) ;
#128 = CARTESIAN_POINT ( 'NONE',  ( 0.000000000000000000, 0.000000000000000000, 3.000000000000000000 ) ) ;
#129 = EDGE_LOOP ( 'NONE', ( #114, #67 ) ) ;
#130 = ORIENTED_EDGE ( 'NONE', *, *, #17, .T. ) ;
#131 = CC_DESIGN_PERSON_AND_ORGANIZATION_ASSIGNMENT ( #226, #197, ( #148 ) ) ;
#132 = CARTESIAN_POINT ( 'NONE',  ( 5.000000000000000000, 6.123233995736766282E-16, 3.000000000000000000 ) ) ;
#133 = LOCAL_TIME ( 13, 25, 58.00000000000000000, #204 ) ;
#134 = CIRCLE ( 'NONE', #71, 2.750000000000000000 ) ;
#135 = APPLICATION_PROTOCOL_DEFINITION ( 'international standard', 'config_control_design', 1994, #227 ) ;
#136 = CARTESIAN_POINT ( 'NONE',  ( 0.000000000000000000, 0.000000000000000000, 0.000000000000000000 ) ) ;
#137 = CALENDAR_DATE ( 2023, 12, 2 ) ;
#138 = DIRECTION ( 'NONE',  ( -0.000000000000000000, -0.000000000000000000, -1.000000000000000000 ) ) ;
#139 =( NAMED_UNIT ( * ) PLANE_ANGLE_UNIT ( ) SI_UNIT ( $, .RADIAN. ) );
#140 = AXIS2_PLACEMENT_3D ( 'NONE', #99, #118, #27 ) ;
#141 = PERSON_AND_ORGANIZATION ( #218, #252 ) ;
#142 = DATE_AND_TIME ( #156, #55 ) ;
#143 = CARTESIAN_POINT ( 'NONE',  ( 0.000000000000000000, 0.000000000000000000, 3.000000000000000000 ) ) ;
#144 = VERTEX_POINT ( 'NONE', #166 ) ;
#145 = CARTESIAN_POINT ( 'NONE',  ( 0.000000000000000000, 0.000000000000000000, 0.000000000000000000 ) ) ;
#146 = EDGE_CURVE ( 'NONE', #81, #211, #134, .T. ) ;
#147 = DIRECTION ( 'NONE',  ( -0.000000000000000000, -0.000000000000000000, -1.000000000000000000 ) ) ;
#148 = PRODUCT ( '838b', '838b', '', ( #101 ) ) ;
#149 = CC_DESIGN_APPROVAL ( #39, ( #87 ) ) ;
#150 = VERTEX_POINT ( 'NONE', #185 ) ;
#151 = ORIENTED_EDGE ( 'NONE', *, *, #10, .F. ) ;
#152 = ORIENTED_EDGE ( 'NONE', *, *, #146, .F. ) ;
#153 = CC_DESIGN_PERSON_AND_ORGANIZATION_ASSIGNMENT ( #63, #97, ( #76 ) ) ;
#154 = EDGE_CURVE ( 'NONE', #150, #144, #85, .T. ) ;
#155 = COORDINATED_UNIVERSAL_TIME_OFFSET ( 1, 0, .AHEAD. ) ;
#156 = CALENDAR_DATE ( 2023, 12, 2 ) ;
#157 = COORDINATED_UNIVERSAL_TIME_OFFSET ( 1, 0, .AHEAD. ) ;
#158 = ORIENTED_EDGE ( 'NONE', *, *, #17, .F. ) ;
#159 = DIRECTION ( 'NONE',  ( 0.000000000000000000, 0.000000000000000000, 1.000000000000000000 ) ) ;
#160 = AXIS2_PLACEMENT_3D ( 'NONE', #65, #202, #221 ) ;
#161 = PERSON_AND_ORGANIZATION ( #218, #252 ) ;
#162 = CARTESIAN_POINT ( 'NONE',  ( 5.000000000000000000, 6.123233995736766282E-16, 3.000000000000000000 ) ) ;
#163 = CARTESIAN_POINT ( 'NONE',  ( 0.000000000000000000, 0.000000000000000000, 3.000000000000000000 ) ) ;
#164 = ORIENTED_EDGE ( 'NONE', *, *, #146, .T. ) ;
#165 = SECURITY_CLASSIFICATION ( '', '', #66 ) ;
#166 = CARTESIAN_POINT ( 'NONE',  ( 2.750000000000000000, 3.367778697655220519E-16, 3.000000000000000000 ) ) ;
#167 = PRODUCT_RELATED_PRODUCT_CATEGORY ( 'detail', '', ( #148 ) ) ;
#168 = AXIS2_PLACEMENT_3D ( 'NONE', #143, #46, #207 ) ;
#169 = CYLINDRICAL_SURFACE ( 'NONE', #57, 5.000000000000000000 ) ;
#170 = ORIENTED_EDGE ( 'NONE', *, *, #171, .F. ) ;
#171 = EDGE_CURVE ( 'NONE', #115, #174, #68, .T. ) ;
#172 = EDGE_CURVE ( 'NONE', #81, #144, #232, .T. ) ;
#173 = DATE_TIME_ROLE ( 'classification_date' ) ;
#174 = VERTEX_POINT ( 'NONE', #234 ) ;
#175 = DATE_AND_TIME ( #137, #192 ) ;
#176 = SHAPE_DEFINITION_REPRESENTATION ( #127, #96 ) ;
#177 = DIRECTION ( 'NONE',  ( -1.000000000000000000, 0.000000000000000000, 0.000000000000000000 ) ) ;
#178 = DIRECTION ( 'NONE',  ( -0.000000000000000000, -0.000000000000000000, -1.000000000000000000 ) ) ;
#179 = EDGE_CURVE ( 'NONE', #211, #150, #50, .T. ) ;
#180 = PLANE ( 'NONE',  #255 ) ;
#181 = CYLINDRICAL_SURFACE ( 'NONE', #92, 2.750000000000000000 ) ;
#182 = CIRCLE ( 'NONE', #75, 5.000000000000000000 ) ;
#183 = APPROVAL_DATE_TIME ( #22, #203 ) ;
#184 = CARTESIAN_POINT ( 'NONE',  ( 0.000000000000000000, 0.000000000000000000, 100.0000000000000000 ) ) ;
#185 = CARTESIAN_POINT ( 'NONE',  ( -2.750000000000000000, 0.000000000000000000, 3.000000000000000000 ) ) ;
#186 = ADVANCED_FACE ( 'NONE', ( #251 ), #181, .T. ) ;
#187 = DIRECTION ( 'NONE',  ( 0.000000000000000000, 0.000000000000000000, 1.000000000000000000 ) ) ;
#188 = FACE_OUTER_BOUND ( 'NONE', #88, .T. ) ;
#189 = APPROVAL ( #3, 'NEURÈENÝ' ) ;
#190 = CC_DESIGN_DATE_AND_TIME_ASSIGNMENT ( #79, #120, ( #87 ) ) ;
#191 = ORIENTED_EDGE ( 'NONE', *, *, #154, .T. ) ;
#192 = LOCAL_TIME ( 13, 25, 58.00000000000000000, #84 ) ;
#193 = EDGE_LOOP ( 'NONE', ( #194, #151, #74, #191 ) ) ;
#194 = ORIENTED_EDGE ( 'NONE', *, *, #172, .F. ) ;
#195 = EDGE_CURVE ( 'NONE', #144, #150, #119, .T. ) ;
#196 = CIRCLE ( 'NONE', #140, 5.000000000000000000 ) ;
#197 = PERSON_AND_ORGANIZATION_ROLE ( 'design_owner' ) ;
#198 = PLANE ( 'NONE',  #240 ) ;
#199 = LOCAL_TIME ( 13, 25, 58.00000000000000000, #157 ) ;
#200 = VECTOR ( 'NONE', #90, 1000.000000000000000 ) ;
#201 = PERSON_AND_ORGANIZATION_ROLE ( 'design_supplier' ) ;
#202 = DIRECTION ( 'NONE',  ( 0.000000000000000000, 0.000000000000000000, 1.000000000000000000 ) ) ;
#203 = APPROVAL ( #122, 'NEURÈENÝ' ) ;
#204 = COORDINATED_UNIVERSAL_TIME_OFFSET ( 1, 0, .AHEAD. ) ;
#205 = DIRECTION ( 'NONE',  ( 0.000000000000000000, 0.000000000000000000, 1.000000000000000000 ) ) ;
#206 = PERSON_AND_ORGANIZATION ( #218, #252 ) ;
#207 = DIRECTION ( 'NONE',  ( 1.000000000000000000, 0.000000000000000000, 0.000000000000000000 ) ) ;
#208 = AXIS2_PLACEMENT_3D ( 'NONE', #243, #138, #177 ) ;
#209 = ADVANCED_FACE ( 'NONE', ( #110 ), #124, .T. ) ;
#210 = DIRECTION ( 'NONE',  ( 0.000000000000000000, 0.000000000000000000, 1.000000000000000000 ) ) ;
#211 = VERTEX_POINT ( 'NONE', #213 ) ;
#212 = CARTESIAN_POINT ( 'NONE',  ( 0.000000000000000000, 0.000000000000000000, 3.000000000000000000 ) ) ;
#213 = CARTESIAN_POINT ( 'NONE',  ( -2.750000000000000000, 0.000000000000000000, 100.0000000000000000 ) ) ;
#214 = APPROVAL_PERSON_ORGANIZATION ( #42, #39, #77 ) ;
#215 = EDGE_LOOP ( 'NONE', ( #152, #91, #231, #242 ) ) ;
#216 = VECTOR ( 'NONE', #147, 1000.000000000000000 ) ;
#217 = DIRECTION ( 'NONE',  ( -0.000000000000000000, -0.000000000000000000, -1.000000000000000000 ) ) ;
#218 = PERSON ( 'NEURÈENÝ', 'NEURÈENÝ', 'NEURÈENÝ', ('NEURÈENÝ'), ('NEURÈENÝ'), ('NEURÈENÝ') ) ;
#219 = ADVANCED_FACE ( 'NONE', ( #236 ), #169, .T. ) ;
#220 = DATE_AND_TIME ( #222, #237 ) ;
#221 = DIRECTION ( 'NONE',  ( 1.000000000000000000, 0.000000000000000000, 0.000000000000000000 ) ) ;
#222 = CALENDAR_DATE ( 2023, 12, 2 ) ;
#223 = AXIS2_PLACEMENT_3D ( 'NONE', #104, #205, #121 ) ;
#224 = DIRECTION ( 'NONE',  ( 1.000000000000000000, 0.000000000000000000, 0.000000000000000000 ) ) ;
#225 = CARTESIAN_POINT ( 'NONE',  ( 0.000000000000000000, 0.000000000000000000, 100.0000000000000000 ) ) ;
#226 = PERSON_AND_ORGANIZATION ( #218, #252 ) ;
#227 = APPLICATION_CONTEXT ( 'configuration controlled 3d designs of mechanical parts and assemblies' ) ;
#228 = ADVANCED_FACE ( 'NONE', ( #188 ), #25, .T. ) ;
#229 = CARTESIAN_POINT ( 'NONE',  ( -5.000000000000000000, 0.000000000000000000, 0.000000000000000000 ) ) ;
#230 = AXIS2_PLACEMENT_3D ( 'NONE', #145, #187, #33 ) ;
#231 = ORIENTED_EDGE ( 'NONE', *, *, #195, .T. ) ;
#232 = LINE ( 'NONE', #254, #216 ) ;
#233 = DESIGN_CONTEXT ( 'detailed design', #227, 'design' ) ;
#234 = CARTESIAN_POINT ( 'NONE',  ( 5.000000000000000000, 6.123233995736766282E-16, 0.000000000000000000 ) ) ;
#235 = ORIENTED_EDGE ( 'NONE', *, *, #10, .T. ) ;
#236 = FACE_OUTER_BOUND ( 'NONE', #49, .T. ) ;
#237 = LOCAL_TIME ( 13, 25, 58.00000000000000000, #155 ) ;
#238 = EDGE_LOOP ( 'NONE', ( #235, #164 ) ) ;
#239 = EDGE_CURVE ( 'NONE', #35, #115, #103, .T. ) ;
#240 = AXIS2_PLACEMENT_3D ( 'NONE', #249, #41, #24 ) ;
#241 = APPROVAL_STATUS ( 'not_yet_approved' ) ;
#242 = ORIENTED_EDGE ( 'NONE', *, *, #179, .F. ) ;
#243 = CARTESIAN_POINT ( 'NONE',  ( 0.000000000000000000, 0.000000000000000000, 3.000000000000000000 ) ) ;
#244 = PERSON_AND_ORGANIZATION ( #218, #252 ) ;
#245 = APPROVAL_ROLE ( '' ) ;
#246 = ORIENTED_EDGE ( 'NONE', *, *, #18, .F. ) ;
#247 = AXIS2_PLACEMENT_3D ( 'NONE', #32, #86, #82 ) ;
#248 = APPLICATION_PROTOCOL_DEFINITION ( 'international standard', 'config_control_design', 1994, #116 ) ;
#249 = CARTESIAN_POINT ( 'NONE',  ( 0.000000000000000000, 0.000000000000000000, 0.000000000000000000 ) ) ;
#250 = DIRECTION ( 'NONE',  ( -1.000000000000000000, 0.000000000000000000, 0.000000000000000000 ) ) ;
#251 = FACE_OUTER_BOUND ( 'NONE', #193, .T. ) ;
#252 = ORGANIZATION ( 'NEURÈENÝ', 'NEURÈENÝ', '' ) ;
#253 = ORIENTED_EDGE ( 'NONE', *, *, #7, .F. ) ;
#254 = CARTESIAN_POINT ( 'NONE',  ( 2.750000000000000000, 3.367778697655220519E-16, 100.0000000000000000 ) ) ;
#255 = AXIS2_PLACEMENT_3D ( 'NONE', #212, #48, #14 ) ;
ENDSEC;
END-ISO-10303-21;
