ISO-10303-21;
HEADER;
FILE_DESCRIPTION (( 'STEP AP203' ),
    '1' );
FILE_NAME ('9958.STEP',
    '2022-07-07T10:30:38',
    ( '' ),
    ( '' ),
    'SwSTEP 2.0',
    'SolidWorks 2019',
    '' );
FILE_SCHEMA (( 'CONFIG_CONTROL_DESIGN' ));
ENDSEC;

DATA;
#1 = FACE_OUTER_BOUND ( 'NONE', #165, .T. ) ;
#2 = CARTESIAN_POINT ( 'NONE',  ( 0.000000000000000000, 0.000000000000000000, 0.000000000000000000 ) ) ;
#3 = DIRECTION ( 'NONE',  ( -1.000000000000000000, 1.224646799147353207E-16, 0.000000000000000000 ) ) ;
#4 = DIRECTION ( 'NONE',  ( -0.000000000000000000, -0.000000000000000000, -1.000000000000000000 ) ) ;
#5 = FACE_OUTER_BOUND ( 'NONE', #202, .T. ) ;
#6 = PRODUCT ( '9958', '9958', '', ( #88 ) ) ;
#7 = CARTESIAN_POINT ( 'NONE',  ( 0.000000000000000000, 0.000000000000000000, 3.199999999999980638 ) ) ;
#8 = CC_DESIGN_SECURITY_CLASSIFICATION ( #38, ( #252 ) ) ;
#9 = DIRECTION ( 'NONE',  ( 0.000000000000000000, 0.000000000000000000, 1.000000000000000000 ) ) ;
#10 = PERSON_AND_ORGANIZATION ( #218, #136 ) ;
#11 = SECURITY_CLASSIFICATION_LEVEL ( 'unclassified' ) ;
#12 = CIRCLE ( 'NONE', #295, 1.500000000000000222 ) ;
#13 = PERSON_AND_ORGANIZATION ( #218, #136 ) ;
#14 = APPROVAL_DATE_TIME ( #112, #120 ) ;
#15 = APPROVAL ( #62, 'NEURÈENÝ' ) ;
#16 = ORIENTED_EDGE ( 'NONE', *, *, #272, .F. ) ;
#17 = CIRCLE ( 'NONE', #215, 0.2000000000000000944 ) ;
#18 = DIRECTION ( 'NONE',  ( -1.000000000000000000, 0.000000000000000000, 0.000000000000000000 ) ) ;
#19 = CARTESIAN_POINT ( 'NONE',  ( 1.700000000000000400, 0.000000000000000000, 3.199999999999980638 ) ) ;
#20 = DIRECTION ( 'NONE',  ( 1.000000000000000000, 0.000000000000000000, -0.000000000000000000 ) ) ;
#21 = LOCAL_TIME ( 12, 30, 38.00000000000000000, #181 ) ;
#22 = DIRECTION ( 'NONE',  ( 0.000000000000000000, 0.000000000000000000, 1.000000000000000000 ) ) ;
#23 = DIRECTION ( 'NONE',  ( 0.000000000000000000, 0.000000000000000000, -1.000000000000000000 ) ) ;
#24 = EDGE_CURVE ( 'NONE', #37, #47, #172, .T. ) ;
#25 = DIRECTION ( 'NONE',  ( -1.000000000000000000, 0.000000000000000000, 0.000000000000000000 ) ) ;
#26 = AXIS2_PLACEMENT_3D ( 'NONE', #19, #278, #23 ) ;
#27 = TOROIDAL_SURFACE ( 'NONE', #92, 1.700000000000000400, 0.2000000000000000111 ) ;
#28 = VECTOR ( 'NONE', #289, 1000.000000000000000 ) ;
#29 = DIRECTION ( 'NONE',  ( 1.000000000000000000, 0.000000000000000000, -0.000000000000000000 ) ) ;
#30 = CARTESIAN_POINT ( 'NONE',  ( 0.000000000000000000, 0.000000000000000000, 3.000000000000000000 ) ) ;
#31 = CC_DESIGN_PERSON_AND_ORGANIZATION_ASSIGNMENT ( #205, #160, ( #72 ) ) ;
#32 = CYLINDRICAL_SURFACE ( 'NONE', #258, 3.000000000000000444 ) ;
#33 = CARTESIAN_POINT ( 'NONE',  ( 0.000000000000000000, 0.000000000000000000, 3.000000000000000000 ) ) ;
#34 = CALENDAR_DATE ( 2022, 7, 7 ) ;
#35 = ORIENTED_EDGE ( 'NONE', *, *, #161, .F. ) ;
#36 = PERSON_AND_ORGANIZATION ( #218, #136 ) ;
#37 = VERTEX_POINT ( 'NONE', #89 ) ;
#38 = SECURITY_CLASSIFICATION ( '', '', #11 ) ;
#39 = VERTEX_POINT ( 'NONE', #281 ) ;
#40 = PERSON_AND_ORGANIZATION_ROLE ( 'classification_officer' ) ;
#41 = ORIENTED_EDGE ( 'NONE', *, *, #297, .T. ) ;
#42 = ADVANCED_FACE ( 'NONE', ( #234 ), #137, .T. ) ;
#43 = ORIENTED_EDGE ( 'NONE', *, *, #95, .T. ) ;
#44 = CC_DESIGN_DATE_AND_TIME_ASSIGNMENT ( #60, #254, ( #38 ) ) ;
#45 = DIRECTION ( 'NONE',  ( 1.000000000000000000, 0.000000000000000000, -0.000000000000000000 ) ) ;
#46 = DIRECTION ( 'NONE',  ( 0.000000000000000000, 0.000000000000000000, 1.000000000000000000 ) ) ;
#47 = VERTEX_POINT ( 'NONE', #69 ) ;
#48 = AXIS2_PLACEMENT_3D ( 'NONE', #287, #267, #25 ) ;
#49 = DIRECTION ( 'NONE',  ( 1.000000000000000000, 0.000000000000000000, 0.000000000000000000 ) ) ;
#50 = DIRECTION ( 'NONE',  ( -0.000000000000000000, -0.000000000000000000, -1.000000000000000000 ) ) ;
#51 = DIRECTION ( 'NONE',  ( -0.000000000000000000, -0.000000000000000000, -1.000000000000000000 ) ) ;
#52 = AXIS2_PLACEMENT_3D ( 'NONE', #104, #200, #290 ) ;
#53 = DIRECTION ( 'NONE',  ( -0.000000000000000000, -0.000000000000000000, -1.000000000000000000 ) ) ;
#54 = CARTESIAN_POINT ( 'NONE',  ( 0.000000000000000000, 0.000000000000000000, 3.000000000000000000 ) ) ;
#55 = APPROVAL_PERSON_ORGANIZATION ( #110, #120, #292 ) ;
#56 =( NAMED_UNIT ( * ) PLANE_ANGLE_UNIT ( ) SI_UNIT ( $, .RADIAN. ) );
#57 = ORIENTED_EDGE ( 'NONE', *, *, #154, .F. ) ;
#58 = CC_DESIGN_PERSON_AND_ORGANIZATION_ASSIGNMENT ( #36, #227, ( #252 ) ) ;
#59 = CALENDAR_DATE ( 2022, 7, 7 ) ;
#60 = DATE_AND_TIME ( #276, #77 ) ;
#61 = CIRCLE ( 'NONE', #52, 3.000000000000000444 ) ;
#62 = APPROVAL_STATUS ( 'not_yet_approved' ) ;
#63 = CC_DESIGN_DATE_AND_TIME_ASSIGNMENT ( #207, #183, ( #72 ) ) ;
#64 = EDGE_LOOP ( 'NONE', ( #210, #86, #271, #279 ) ) ;
#65 = FACE_OUTER_BOUND ( 'NONE', #138, .T. ) ;
#66 =( GEOMETRIC_REPRESENTATION_CONTEXT ( 3 ) GLOBAL_UNCERTAINTY_ASSIGNED_CONTEXT ( ( #260 ) ) GLOBAL_UNIT_ASSIGNED_CONTEXT ( ( #299, #56, #83 ) ) REPRESENTATION_CONTEXT ( 'NONE', 'WORKASPACE' ) );
#67 = ORIENTED_EDGE ( 'NONE', *, *, #171, .T. ) ;
#68 = CARTESIAN_POINT ( 'NONE',  ( 0.000000000000000000, 0.000000000000000000, 503.0000000000000000 ) ) ;
#69 = CARTESIAN_POINT ( 'NONE',  ( 1.700000000000000400, 0.000000000000000000, 2.999999999999990674 ) ) ;
#70 = DIRECTION ( 'NONE',  ( 0.000000000000000000, 0.000000000000000000, 1.000000000000000000 ) ) ;
#71 = AXIS2_PLACEMENT_3D ( 'NONE', #162, #259, #45 ) ;
#72 = PRODUCT_DEFINITION ( 'NEZNÁMÝ', '', #252, #101 ) ;
#73 = PLANE ( 'NONE',  #209 ) ;
#74 = LINE ( 'NONE', #266, #147 ) ;
#75 = EDGE_CURVE ( 'NONE', #114, #39, #229, .T. ) ;
#76 = DIRECTION ( 'NONE',  ( 0.000000000000000000, 0.000000000000000000, 1.000000000000000000 ) ) ;
#77 = LOCAL_TIME ( 12, 30, 38.00000000000000000, #273 ) ;
#78 = CARTESIAN_POINT ( 'NONE',  ( -1.700000000000000400, 2.081899558550500773E-16, 3.199999999999980638 ) ) ;
#79 = CARTESIAN_POINT ( 'NONE',  ( -3.000000000000000444, 0.000000000000000000, 3.000000000000000000 ) ) ;
#80 = APPROVAL_STATUS ( 'not_yet_approved' ) ;
#81 = ORIENTED_EDGE ( 'NONE', *, *, #238, .F. ) ;
#82 = ADVANCED_FACE ( 'NONE', ( #261 ), #121, .T. ) ;
#83 =( NAMED_UNIT ( * ) SI_UNIT ( $, .STERADIAN. ) SOLID_ANGLE_UNIT ( ) );
#84 = ORIENTED_EDGE ( 'NONE', *, *, #75, .F. ) ;
#85 = APPROVAL ( #201, 'NEURÈENÝ' ) ;
#86 = ORIENTED_EDGE ( 'NONE', *, *, #230, .T. ) ;
#87 = AXIS2_PLACEMENT_3D ( 'NONE', #7, #9, #98 ) ;
#88 = MECHANICAL_CONTEXT ( 'NONE', #195, 'mechanical' ) ;
#89 = CARTESIAN_POINT ( 'NONE',  ( 1.500000000000000222, 1.836970198721030181E-16, 3.199999999999980638 ) ) ;
#90 = ADVANCED_FACE ( 'NONE', ( #213 ), #303, .T. ) ;
#91 = DIRECTION ( 'NONE',  ( 0.000000000000000000, 0.000000000000000000, 1.000000000000000000 ) ) ;
#92 = AXIS2_PLACEMENT_3D ( 'NONE', #150, #285, #156 ) ;
#93 = ORIENTED_EDGE ( 'NONE', *, *, #166, .T. ) ;
#94 = CARTESIAN_POINT ( 'NONE',  ( 0.000000000000000000, 0.000000000000000000, 3.199999999999980638 ) ) ;
#95 = EDGE_CURVE ( 'NONE', #232, #251, #294, .T. ) ;
#96 = ORIENTED_EDGE ( 'NONE', *, *, #238, .T. ) ;
#97 = FACE_OUTER_BOUND ( 'NONE', #262, .T. ) ;
#98 = DIRECTION ( 'NONE',  ( 1.000000000000000000, 0.000000000000000000, 0.000000000000000000 ) ) ;
#99 = PRODUCT_RELATED_PRODUCT_CATEGORY ( 'detail', '', ( #6 ) ) ;
#100 = CYLINDRICAL_SURFACE ( 'NONE', #48, 1.500000000000000222 ) ;
#101 = DESIGN_CONTEXT ( 'detailed design', #151, 'design' ) ;
#102 = FACE_BOUND ( 'NONE', #300, .T. ) ;
#103 = CC_DESIGN_APPROVAL ( #85, ( #38 ) ) ;
#104 = CARTESIAN_POINT ( 'NONE',  ( 0.000000000000000000, 0.000000000000000000, 0.000000000000000000 ) ) ;
#105 = PERSON_AND_ORGANIZATION ( #218, #136 ) ;
#106 = ADVANCED_FACE ( 'NONE', ( #65 ), #211, .F. ) ;
#107 = CALENDAR_DATE ( 2022, 7, 7 ) ;
#108 = EDGE_LOOP ( 'NONE', ( #191, #142, #248, #159 ) ) ;
#109 = AXIS2_PLACEMENT_3D ( 'NONE', #54, #146, #198 ) ;
#110 = PERSON_AND_ORGANIZATION ( #218, #136 ) ;
#111 = ADVANCED_FACE ( 'NONE', ( #1 ), #241, .F. ) ;
#112 = DATE_AND_TIME ( #59, #21 ) ;
#113 = COORDINATED_UNIVERSAL_TIME_OFFSET ( 1, 0, .AHEAD. ) ;
#114 = VERTEX_POINT ( 'NONE', #216 ) ;
#115 = AXIS2_PLACEMENT_3D ( 'NONE', #283, #217, #18 ) ;
#116 = DIRECTION ( 'NONE',  ( -0.000000000000000000, -0.000000000000000000, -1.000000000000000000 ) ) ;
#117 = CC_DESIGN_PERSON_AND_ORGANIZATION_ASSIGNMENT ( #158, #185, ( #252 ) ) ;
#118 = ORIENTED_EDGE ( 'NONE', *, *, #186, .F. ) ;
#119 = SHAPE_DEFINITION_REPRESENTATION ( #123, #256 ) ;
#120 = APPROVAL ( #80, 'NEURÈENÝ' ) ;
#121 = CYLINDRICAL_SURFACE ( 'NONE', #115, 1.500000000000000222 ) ;
#122 = DIRECTION ( 'NONE',  ( 1.000000000000000000, 0.000000000000000000, 0.000000000000000000 ) ) ;
#123 = PRODUCT_DEFINITION_SHAPE ( 'NONE', 'NONE',  #72 ) ;
#124 = AXIS2_PLACEMENT_3D ( 'NONE', #2, #70, #49 ) ;
#125 = CARTESIAN_POINT ( 'NONE',  ( 3.000000000000000444, 3.673940397442060361E-16, 3.000000000000000000 ) ) ;
#126 = CC_DESIGN_PERSON_AND_ORGANIZATION_ASSIGNMENT ( #10, #40, ( #38 ) ) ;
#127 = VECTOR ( 'NONE', #53, 1000.000000000000000 ) ;
#128 = LINE ( 'NONE', #125, #280 ) ;
#129 = CARTESIAN_POINT ( 'NONE',  ( 3.000000000000000444, 3.673940397442060361E-16, 0.000000000000000000 ) ) ;
#130 = DIRECTION ( 'NONE',  ( 0.000000000000000000, 0.000000000000000000, 1.000000000000000000 ) ) ;
#131 = EDGE_CURVE ( 'NONE', #167, #37, #164, .T. ) ;
#132 = APPLICATION_PROTOCOL_DEFINITION ( 'international standard', 'config_control_design', 1994, #195 ) ;
#133 = APPROVAL_DATE_TIME ( #298, #15 ) ;
#134 = ORIENTED_EDGE ( 'NONE', *, *, #24, .T. ) ;
#135 = ADVANCED_FACE ( 'NONE', ( #102, #5 ), #73, .T. ) ;
#136 = ORGANIZATION ( 'NEURÈENÝ', 'NEURÈENÝ', '' ) ;
#137 = PLANE ( 'NONE',  #71 ) ;
#138 = EDGE_LOOP ( 'NONE', ( #206, #193 ) ) ;
#139 = ORIENTED_EDGE ( 'NONE', *, *, #212, .F. ) ;
#140 = DATE_AND_TIME ( #107, #235 ) ;
#141 = CIRCLE ( 'NONE', #87, 1.500000000000000222 ) ;
#142 = ORIENTED_EDGE ( 'NONE', *, *, #212, .T. ) ;
#143 = DIRECTION ( 'NONE',  ( 1.000000000000000000, 0.000000000000000000, 0.000000000000000000 ) ) ;
#144 = EDGE_CURVE ( 'NONE', #47, #282, #275, .T. ) ;
#145 = FACE_OUTER_BOUND ( 'NONE', #239, .T. ) ;
#146 = DIRECTION ( 'NONE',  ( 0.000000000000000000, 0.000000000000000000, 1.000000000000000000 ) ) ;
#147 = VECTOR ( 'NONE', #51, 1000.000000000000000 ) ;
#148 = CARTESIAN_POINT ( 'NONE',  ( 3.000000000000000444, 3.673940397442060361E-16, 3.000000000000000000 ) ) ;
#149 = CARTESIAN_POINT ( 'NONE',  ( -1.500000000000000222, 0.000000000000000000, 3.199999999999980638 ) ) ;
#150 = CARTESIAN_POINT ( 'NONE',  ( 0.000000000000000000, 0.000000000000000000, 3.199999999999980638 ) ) ;
#151 = APPLICATION_CONTEXT ( 'configuration controlled 3d designs of mechanical parts and assemblies' ) ;
#152 = AXIS2_PLACEMENT_3D ( 'NONE', #94, #192, #143 ) ;
#153 = COORDINATED_UNIVERSAL_TIME_OFFSET ( 1, 0, .AHEAD. ) ;
#154 = EDGE_CURVE ( 'NONE', #302, #168, #225, .T. ) ;
#155 = APPROVAL_ROLE ( '' ) ;
#156 = DIRECTION ( 'NONE',  ( 1.000000000000000000, 0.000000000000000000, 0.000000000000000000 ) ) ;
#157 = CIRCLE ( 'NONE', #284, 1.700000000000000400 ) ;
#158 = PERSON_AND_ORGANIZATION ( #218, #136 ) ;
#159 = ORIENTED_EDGE ( 'NONE', *, *, #24, .F. ) ;
#160 = PERSON_AND_ORGANIZATION_ROLE ( 'creator' ) ;
#161 = EDGE_CURVE ( 'NONE', #282, #47, #157, .T. ) ;
#162 = CARTESIAN_POINT ( 'NONE',  ( 0.000000000000000000, 0.000000000000000000, 503.0000000000000000 ) ) ;
#163 = AXIS2_PLACEMENT_3D ( 'NONE', #177, #130, #265 ) ;
#164 = CIRCLE ( 'NONE', #152, 1.500000000000000222 ) ;
#165 = EDGE_LOOP ( 'NONE', ( #139, #16, #134, #35 ) ) ;
#166 = EDGE_CURVE ( 'NONE', #39, #114, #12, .T. ) ;
#167 = VERTEX_POINT ( 'NONE', #149 ) ;
#168 = VERTEX_POINT ( 'NONE', #148 ) ;
#169 = ORIENTED_EDGE ( 'NONE', *, *, #186, .T. ) ;
#170 = FACE_OUTER_BOUND ( 'NONE', #108, .T. ) ;
#171 = EDGE_CURVE ( 'NONE', #168, #251, #128, .T. ) ;
#172 = CIRCLE ( 'NONE', #26, 0.2000000000000000944 ) ;
#173 = LINE ( 'NONE', #197, #28 ) ;
#174 = CC_DESIGN_APPROVAL ( #15, ( #252 ) ) ;
#175 = DIRECTION ( 'NONE',  ( -0.000000000000000000, -0.000000000000000000, -1.000000000000000000 ) ) ;
#176 = ADVANCED_FACE ( 'NONE', ( #145 ), #32, .T. ) ;
#177 = CARTESIAN_POINT ( 'NONE',  ( 0.000000000000000000, 0.000000000000000000, 3.000000000000000000 ) ) ;
#178 = PERSON_AND_ORGANIZATION_ROLE ( 'design_owner' ) ;
#179 = ORIENTED_EDGE ( 'NONE', *, *, #161, .T. ) ;
#180 = EDGE_CURVE ( 'NONE', #114, #167, #173, .T. ) ;
#181 = COORDINATED_UNIVERSAL_TIME_OFFSET ( 1, 0, .AHEAD. ) ;
#182 = APPLICATION_PROTOCOL_DEFINITION ( 'international standard', 'config_control_design', 1994, #151 ) ;
#183 = DATE_TIME_ROLE ( 'creation_date' ) ;
#184 = ORIENTED_EDGE ( 'NONE', *, *, #144, .T. ) ;
#185 = PERSON_AND_ORGANIZATION_ROLE ( 'creator' ) ;
#186 = EDGE_CURVE ( 'NONE', #302, #232, #74, .T. ) ;
#187 = CARTESIAN_POINT ( 'NONE',  ( 0.000000000000000000, 0.000000000000000000, 3.000000000000000000 ) ) ;
#188 = APPROVAL_DATE_TIME ( #140, #85 ) ;
#189 = DIRECTION ( 'NONE',  ( 1.000000000000000000, 0.000000000000000000, 0.000000000000000000 ) ) ;
#190 = AXIS2_PLACEMENT_3D ( 'NONE', #196, #50, #219 ) ;
#191 = ORIENTED_EDGE ( 'NONE', *, *, #131, .F. ) ;
#192 = DIRECTION ( 'NONE',  ( 0.000000000000000000, 0.000000000000000000, 1.000000000000000000 ) ) ;
#193 = ORIENTED_EDGE ( 'NONE', *, *, #297, .F. ) ;
#194 = LINE ( 'NONE', #220, #127 ) ;
#195 = APPLICATION_CONTEXT ( 'configuration controlled 3d designs of mechanical parts and assemblies' ) ;
#196 = CARTESIAN_POINT ( 'NONE',  ( 0.000000000000000000, 0.000000000000000000, 3.000000000000000000 ) ) ;
#197 = CARTESIAN_POINT ( 'NONE',  ( -1.500000000000000222, 0.000000000000000000, 503.0000000000000000 ) ) ;
#198 = DIRECTION ( 'NONE',  ( 1.000000000000000000, 0.000000000000000000, 0.000000000000000000 ) ) ;
#199 = CIRCLE ( 'NONE', #163, 3.000000000000000444 ) ;
#200 = DIRECTION ( 'NONE',  ( 0.000000000000000000, 0.000000000000000000, 1.000000000000000000 ) ) ;
#201 = APPROVAL_STATUS ( 'not_yet_approved' ) ;
#202 = EDGE_LOOP ( 'NONE', ( #237, #96 ) ) ;
#203 = APPROVAL_PERSON_ORGANIZATION ( #105, #85, #269 ) ;
#204 = PERSON_AND_ORGANIZATION ( #218, #136 ) ;
#205 = PERSON_AND_ORGANIZATION ( #218, #136 ) ;
#206 = ORIENTED_EDGE ( 'NONE', *, *, #95, .F. ) ;
#207 = DATE_AND_TIME ( #34, #270 ) ;
#208 = CLOSED_SHELL ( 'NONE', ( #304, #82, #176, #90, #135, #106, #222, #42, #111 ) ) ;
#209 = AXIS2_PLACEMENT_3D ( 'NONE', #224, #76, #29 ) ;
#210 = ORIENTED_EDGE ( 'NONE', *, *, #166, .F. ) ;
#211 = PLANE ( 'NONE',  #293 ) ;
#212 = EDGE_CURVE ( 'NONE', #167, #282, #17, .T. ) ;
#213 = FACE_OUTER_BOUND ( 'NONE', #277, .T. ) ;
#214 = AXIS2_PLACEMENT_3D ( 'NONE', #187, #116, #264 ) ;
#215 = AXIS2_PLACEMENT_3D ( 'NONE', #78, #243, #3 ) ;
#216 = CARTESIAN_POINT ( 'NONE',  ( -1.500000000000000222, 0.000000000000000000, 503.0000000000000000 ) ) ;
#217 = DIRECTION ( 'NONE',  ( -0.000000000000000000, -0.000000000000000000, -1.000000000000000000 ) ) ;
#218 = PERSON ( 'NEURÈENÝ', 'NEURÈENÝ', 'NEURÈENÝ', ('NEURÈENÝ'), ('NEURÈENÝ'), ('NEURÈENÝ') ) ;
#219 = DIRECTION ( 'NONE',  ( 1.000000000000000000, 0.000000000000000000, 0.000000000000000000 ) ) ;
#220 = CARTESIAN_POINT ( 'NONE',  ( 1.500000000000000222, 1.836970198721030181E-16, 503.0000000000000000 ) ) ;
#221 = DIRECTION ( 'NONE',  ( -1.000000000000000000, 0.000000000000000000, 0.000000000000000000 ) ) ;
#222 = ADVANCED_FACE ( 'NONE', ( #97 ), #100, .T. ) ;
#223 = CARTESIAN_POINT ( 'NONE',  ( -3.000000000000000444, 0.000000000000000000, 0.000000000000000000 ) ) ;
#224 = CARTESIAN_POINT ( 'NONE',  ( 0.000000000000000000, 0.000000000000000000, 3.000000000000000000 ) ) ;
#225 = CIRCLE ( 'NONE', #109, 3.000000000000000444 ) ;
#226 = CARTESIAN_POINT ( 'NONE',  ( 0.000000000000000000, 0.000000000000000000, 0.000000000000000000 ) ) ;
#227 = PERSON_AND_ORGANIZATION_ROLE ( 'design_supplier' ) ;
#228 = DIRECTION ( 'NONE',  ( 1.000000000000000000, 0.000000000000000000, 0.000000000000000000 ) ) ;
#229 = CIRCLE ( 'NONE', #246, 1.500000000000000222 ) ;
#230 = EDGE_CURVE ( 'NONE', #39, #37, #194, .T. ) ;
#231 = CC_DESIGN_APPROVAL ( #120, ( #72 ) ) ;
#232 = VERTEX_POINT ( 'NONE', #223 ) ;
#233 = ORIENTED_EDGE ( 'NONE', *, *, #230, .F. ) ;
#234 = FACE_OUTER_BOUND ( 'NONE', #257, .T. ) ;
#235 = LOCAL_TIME ( 12, 30, 38.00000000000000000, #153 ) ;
#236 = MANIFOLD_SOLID_BREP ( 'Zaoblit1', #208 ) ;
#237 = ORIENTED_EDGE ( 'NONE', *, *, #154, .T. ) ;
#238 = EDGE_CURVE ( 'NONE', #168, #302, #199, .T. ) ;
#239 = EDGE_LOOP ( 'NONE', ( #81, #67, #41, #118 ) ) ;
#240 = DIRECTION ( 'NONE',  ( 0.000000000000000000, 0.000000000000000000, 1.000000000000000000 ) ) ;
#241 = TOROIDAL_SURFACE ( 'NONE', #242, 1.700000000000000400, 0.2000000000000000111 ) ;
#242 = AXIS2_PLACEMENT_3D ( 'NONE', #305, #91, #189 ) ;
#243 = DIRECTION ( 'NONE',  ( 1.224646799147353207E-16, 1.000000000000000000, -0.000000000000000000 ) ) ;
#244 = CARTESIAN_POINT ( 'NONE',  ( 0.000000000000000000, 0.000000000000000000, 503.0000000000000000 ) ) ;
#245 = DIRECTION ( 'NONE',  ( 1.000000000000000000, 0.000000000000000000, 0.000000000000000000 ) ) ;
#246 = AXIS2_PLACEMENT_3D ( 'NONE', #68, #22, #122 ) ;
#247 = DIRECTION ( 'NONE',  ( 1.000000000000000000, 0.000000000000000000, 0.000000000000000000 ) ) ;
#248 = ORIENTED_EDGE ( 'NONE', *, *, #144, .F. ) ;
#249 = DIRECTION ( 'NONE',  ( 0.000000000000000000, 0.000000000000000000, 1.000000000000000000 ) ) ;
#250 = ORIENTED_EDGE ( 'NONE', *, *, #180, .T. ) ;
#251 = VERTEX_POINT ( 'NONE', #129 ) ;
#252 = PRODUCT_DEFINITION_FORMATION_WITH_SPECIFIED_SOURCE ( 'LIBOVOLNÝ', '', #6, .NOT_KNOWN. ) ;
#253 = COORDINATED_UNIVERSAL_TIME_OFFSET ( 1, 0, .AHEAD. ) ;
#254 = DATE_TIME_ROLE ( 'classification_date' ) ;
#255 = ORIENTED_EDGE ( 'NONE', *, *, #131, .T. ) ;
#256 = ADVANCED_BREP_SHAPE_REPRESENTATION ( '9958', ( #236, #288 ), #66 ) ;
#257 = EDGE_LOOP ( 'NONE', ( #296, #93 ) ) ;
#258 = AXIS2_PLACEMENT_3D ( 'NONE', #33, #175, #221 ) ;
#259 = DIRECTION ( 'NONE',  ( 0.000000000000000000, 0.000000000000000000, 1.000000000000000000 ) ) ;
#260 = UNCERTAINTY_MEASURE_WITH_UNIT (LENGTH_MEASURE( 1.000000000000000082E-05 ), #299, 'distance_accuracy_value', 'NONE');
#261 = FACE_OUTER_BOUND ( 'NONE', #64, .T. ) ;
#262 = EDGE_LOOP ( 'NONE', ( #233, #84, #250, #255 ) ) ;
#263 = LOCAL_TIME ( 12, 30, 38.00000000000000000, #113 ) ;
#264 = DIRECTION ( 'NONE',  ( -1.000000000000000000, 0.000000000000000000, 0.000000000000000000 ) ) ;
#265 = DIRECTION ( 'NONE',  ( 1.000000000000000000, 0.000000000000000000, 0.000000000000000000 ) ) ;
#266 = CARTESIAN_POINT ( 'NONE',  ( -3.000000000000000444, 0.000000000000000000, 3.000000000000000000 ) ) ;
#267 = DIRECTION ( 'NONE',  ( -0.000000000000000000, -0.000000000000000000, -1.000000000000000000 ) ) ;
#268 = CARTESIAN_POINT ( 'NONE',  ( -1.700000000000000400, 2.081899558550500773E-16, 2.999999999999990674 ) ) ;
#269 = APPROVAL_ROLE ( '' ) ;
#270 = LOCAL_TIME ( 12, 30, 38.00000000000000000, #253 ) ;
#271 = ORIENTED_EDGE ( 'NONE', *, *, #272, .T. ) ;
#272 = EDGE_CURVE ( 'NONE', #37, #167, #141, .T. ) ;
#273 = COORDINATED_UNIVERSAL_TIME_OFFSET ( 1, 0, .AHEAD. ) ;
#274 = ORIENTED_EDGE ( 'NONE', *, *, #171, .F. ) ;
#275 = CIRCLE ( 'NONE', #190, 1.700000000000000400 ) ;
#276 = CALENDAR_DATE ( 2022, 7, 7 ) ;
#277 = EDGE_LOOP ( 'NONE', ( #274, #57, #169, #43 ) ) ;
#278 = DIRECTION ( 'NONE',  ( 0.000000000000000000, -1.000000000000000000, 0.000000000000000000 ) ) ;
#279 = ORIENTED_EDGE ( 'NONE', *, *, #180, .F. ) ;
#280 = VECTOR ( 'NONE', #286, 1000.000000000000000 ) ;
#281 = CARTESIAN_POINT ( 'NONE',  ( 1.500000000000000222, 1.836970198721030181E-16, 503.0000000000000000 ) ) ;
#282 = VERTEX_POINT ( 'NONE', #268 ) ;
#283 = CARTESIAN_POINT ( 'NONE',  ( 0.000000000000000000, 0.000000000000000000, 503.0000000000000000 ) ) ;
#284 = AXIS2_PLACEMENT_3D ( 'NONE', #30, #4, #245 ) ;
#285 = DIRECTION ( 'NONE',  ( 0.000000000000000000, 0.000000000000000000, 1.000000000000000000 ) ) ;
#286 = DIRECTION ( 'NONE',  ( -0.000000000000000000, -0.000000000000000000, -1.000000000000000000 ) ) ;
#287 = CARTESIAN_POINT ( 'NONE',  ( 0.000000000000000000, 0.000000000000000000, 503.0000000000000000 ) ) ;
#288 = AXIS2_PLACEMENT_3D ( 'NONE', #226, #249, #228 ) ;
#289 = DIRECTION ( 'NONE',  ( -0.000000000000000000, -0.000000000000000000, -1.000000000000000000 ) ) ;
#290 = DIRECTION ( 'NONE',  ( 1.000000000000000000, 0.000000000000000000, 0.000000000000000000 ) ) ;
#291 = CC_DESIGN_PERSON_AND_ORGANIZATION_ASSIGNMENT ( #13, #178, ( #6 ) ) ;
#292 = APPROVAL_ROLE ( '' ) ;
#293 = AXIS2_PLACEMENT_3D ( 'NONE', #306, #46, #20 ) ;
#294 = CIRCLE ( 'NONE', #124, 3.000000000000000444 ) ;
#295 = AXIS2_PLACEMENT_3D ( 'NONE', #244, #240, #247 ) ;
#296 = ORIENTED_EDGE ( 'NONE', *, *, #75, .T. ) ;
#297 = EDGE_CURVE ( 'NONE', #251, #232, #61, .T. ) ;
#298 = DATE_AND_TIME ( #301, #263 ) ;
#299 =( LENGTH_UNIT ( ) NAMED_UNIT ( * ) SI_UNIT ( .MILLI., .METRE. ) );
#300 = EDGE_LOOP ( 'NONE', ( #184, #179 ) ) ;
#301 = CALENDAR_DATE ( 2022, 7, 7 ) ;
#302 = VERTEX_POINT ( 'NONE', #79 ) ;
#303 = CYLINDRICAL_SURFACE ( 'NONE', #214, 3.000000000000000444 ) ;
#304 = ADVANCED_FACE ( 'NONE', ( #170 ), #27, .F. ) ;
#305 = CARTESIAN_POINT ( 'NONE',  ( 0.000000000000000000, 0.000000000000000000, 3.199999999999980638 ) ) ;
#306 = CARTESIAN_POINT ( 'NONE',  ( 0.000000000000000000, 0.000000000000000000, 0.000000000000000000 ) ) ;
#307 = APPROVAL_PERSON_ORGANIZATION ( #204, #15, #155 ) ;
ENDSEC;
END-ISO-10303-21;
