ISO-10303-21;
HEADER;
FILE_DESCRIPTION (( 'STEP AP203' ),
    '1' );
FILE_NAME ('7f1a.STEP',
    '2022-07-07T10:23:56',
    ( '' ),
    ( '' ),
    'SwSTEP 2.0',
    'SolidWorks 2019',
    '' );
FILE_SCHEMA (( 'CONFIG_CONTROL_DESIGN' ));
ENDSEC;

DATA;
#1 = APPROVAL_PERSON_ORGANIZATION ( #65, #9, #76 ) ;
#2 = CARTESIAN_POINT ( 'NONE',  ( 0.000000000000000000, 0.000000000000000000, 3.000000000000000000 ) ) ;
#3 = ADVANCED_FACE ( 'NONE', ( #113, #275 ), #84, .T. ) ;
#4 = PERSON_AND_ORGANIZATION_ROLE ( 'design_owner' ) ;
#5 = PERSON ( 'NEURÈENÝ', 'NEURÈENÝ', 'NEURÈENÝ', ('NEURÈENÝ'), ('NEURÈENÝ'), ('NEURÈENÝ') ) ;
#6 = CARTESIAN_POINT ( 'NONE',  ( 4.000000000000000000, 4.898587196589412829E-16, 3.000000000000000000 ) ) ;
#7 = EDGE_LOOP ( 'NONE', ( #202, #230, #136, #153 ) ) ;
#8 = APPLICATION_PROTOCOL_DEFINITION ( 'international standard', 'config_control_design', 1994, #118 ) ;
#9 = APPROVAL ( #130, 'NEURÈENÝ' ) ;
#10 = AXIS2_PLACEMENT_3D ( 'NONE', #124, #210, #26 ) ;
#11 = VERTEX_POINT ( 'NONE', #41 ) ;
#12 = PLANE ( 'NONE',  #55 ) ;
#13 = ORIENTED_EDGE ( 'NONE', *, *, #266, .T. ) ;
#14 = CC_DESIGN_DATE_AND_TIME_ASSIGNMENT ( #304, #49, ( #161 ) ) ;
#15 = ORIENTED_EDGE ( 'NONE', *, *, #215, .T. ) ;
#16 = CYLINDRICAL_SURFACE ( 'NONE', #82, 2.100000000000000089 ) ;
#17 = APPROVAL_ROLE ( '' ) ;
#18 = CARTESIAN_POINT ( 'NONE',  ( 2.300000000000000266, 0.000000000000000000, 3.199999999999980638 ) ) ;
#19 = PRODUCT ( '7f1a', '7f1a', '', ( #42 ) ) ;
#20 = ADVANCED_FACE ( 'NONE', ( #187 ), #110, .F. ) ;
#21 = COORDINATED_UNIVERSAL_TIME_OFFSET ( 1, 0, .AHEAD. ) ;
#22 = DIRECTION ( 'NONE',  ( 1.000000000000000000, 0.000000000000000000, 0.000000000000000000 ) ) ;
#23 = CARTESIAN_POINT ( 'NONE',  ( 2.300000000000000266, 0.000000000000000000, 2.999999999999990674 ) ) ;
#24 = DIRECTION ( 'NONE',  ( -1.000000000000000000, 0.000000000000000000, 0.000000000000000000 ) ) ;
#25 = EDGE_CURVE ( 'NONE', #156, #221, #206, .T. ) ;
#26 = DIRECTION ( 'NONE',  ( 1.000000000000000000, 0.000000000000000000, 0.000000000000000000 ) ) ;
#27 = FACE_OUTER_BOUND ( 'NONE', #140, .T. ) ;
#28 = PERSON_AND_ORGANIZATION_ROLE ( 'classification_officer' ) ;
#29 = PERSON_AND_ORGANIZATION ( #5, #122 ) ;
#30 = CIRCLE ( 'NONE', #199, 2.100000000000000089 ) ;
#31 = AXIS2_PLACEMENT_3D ( 'NONE', #86, #120, #83 ) ;
#32 = ORIENTED_EDGE ( 'NONE', *, *, #173, .T. ) ;
#33 = VERTEX_POINT ( 'NONE', #261 ) ;
#34 = MANIFOLD_SOLID_BREP ( 'Zaoblit1', #224 ) ;
#35 = CC_DESIGN_APPROVAL ( #271, ( #161 ) ) ;
#36 = CARTESIAN_POINT ( 'NONE',  ( -2.300000000000000266, 2.816687638038912549E-16, 2.999999999999990674 ) ) ;
#37 = CARTESIAN_POINT ( 'NONE',  ( 0.000000000000000000, 0.000000000000000000, 318.0000000000000000 ) ) ;
#38 = DIRECTION ( 'NONE',  ( -0.000000000000000000, -0.000000000000000000, -1.000000000000000000 ) ) ;
#39 = AXIS2_PLACEMENT_3D ( 'NONE', #208, #46, #207 ) ;
#40 = ADVANCED_FACE ( 'NONE', ( #64 ), #12, .F. ) ;
#41 = CARTESIAN_POINT ( 'NONE',  ( 2.100000000000000089, 2.571758278209441957E-16, 318.0000000000000000 ) ) ;
#42 = MECHANICAL_CONTEXT ( 'NONE', #228, 'mechanical' ) ;
#43 = CARTESIAN_POINT ( 'NONE',  ( -2.100000000000000089, 0.000000000000000000, 3.199999999999980638 ) ) ;
#44 = CARTESIAN_POINT ( 'NONE',  ( -2.300000000000000266, 2.816687638038912549E-16, 3.199999999999980638 ) ) ;
#45 = CARTESIAN_POINT ( 'NONE',  ( 2.100000000000000089, 2.571758278209441957E-16, 318.0000000000000000 ) ) ;
#46 = DIRECTION ( 'NONE',  ( 0.000000000000000000, 0.000000000000000000, 1.000000000000000000 ) ) ;
#47 = CARTESIAN_POINT ( 'NONE',  ( 4.000000000000000000, 4.898587196589412829E-16, 0.000000000000000000 ) ) ;
#48 = AXIS2_PLACEMENT_3D ( 'NONE', #93, #192, #214 ) ;
#49 = DATE_TIME_ROLE ( 'creation_date' ) ;
#50 = LOCAL_TIME ( 12, 23, 56.00000000000000000, #21 ) ;
#51 =( NAMED_UNIT ( * ) PLANE_ANGLE_UNIT ( ) SI_UNIT ( $, .RADIAN. ) );
#52 = EDGE_CURVE ( 'NONE', #33, #89, #61, .T. ) ;
#53 = CIRCLE ( 'NONE', #184, 4.000000000000000000 ) ;
#54 = PRODUCT_DEFINITION_FORMATION_WITH_SPECIFIED_SOURCE ( 'LIBOVOLNÝ', '', #19, .NOT_KNOWN. ) ;
#55 = AXIS2_PLACEMENT_3D ( 'NONE', #296, #138, #178 ) ;
#56 = ORIENTED_EDGE ( 'NONE', *, *, #168, .T. ) ;
#57 = ORIENTED_EDGE ( 'NONE', *, *, #173, .F. ) ;
#58 = APPROVAL ( #257, 'NEURÈENÝ' ) ;
#59 = CARTESIAN_POINT ( 'NONE',  ( 0.000000000000000000, 0.000000000000000000, 3.000000000000000000 ) ) ;
#60 = CARTESIAN_POINT ( 'NONE',  ( 4.000000000000000000, 4.898587196589412829E-16, 3.000000000000000000 ) ) ;
#61 = LINE ( 'NONE', #274, #229 ) ;
#62 = ORIENTED_EDGE ( 'NONE', *, *, #235, .F. ) ;
#63 = DATE_AND_TIME ( #289, #78 ) ;
#64 = FACE_OUTER_BOUND ( 'NONE', #300, .T. ) ;
#65 = PERSON_AND_ORGANIZATION ( #5, #122 ) ;
#66 = CARTESIAN_POINT ( 'NONE',  ( 0.000000000000000000, 0.000000000000000000, 3.000000000000000000 ) ) ;
#67 = CIRCLE ( 'NONE', #39, 4.000000000000000000 ) ;
#68 = DIRECTION ( 'NONE',  ( 0.000000000000000000, 0.000000000000000000, 1.000000000000000000 ) ) ;
#69 = EDGE_CURVE ( 'NONE', #79, #221, #108, .T. ) ;
#70 = VECTOR ( 'NONE', #148, 1000.000000000000000 ) ;
#71 = AXIS2_PLACEMENT_3D ( 'NONE', #157, #226, #114 ) ;
#72 = CARTESIAN_POINT ( 'NONE',  ( 0.000000000000000000, 0.000000000000000000, 318.0000000000000000 ) ) ;
#73 = DIRECTION ( 'NONE',  ( -0.000000000000000000, -0.000000000000000000, -1.000000000000000000 ) ) ;
#74 = PERSON_AND_ORGANIZATION ( #5, #122 ) ;
#75 = CARTESIAN_POINT ( 'NONE',  ( 0.000000000000000000, 0.000000000000000000, 0.000000000000000000 ) ) ;
#76 = APPROVAL_ROLE ( '' ) ;
#77 = AXIS2_PLACEMENT_3D ( 'NONE', #18, #181, #87 ) ;
#78 = LOCAL_TIME ( 12, 23, 56.00000000000000000, #195 ) ;
#79 = VERTEX_POINT ( 'NONE', #36 ) ;
#80 = VERTEX_POINT ( 'NONE', #60 ) ;
#81 = SECURITY_CLASSIFICATION ( '', '', #260 ) ;
#82 = AXIS2_PLACEMENT_3D ( 'NONE', #305, #145, #233 ) ;
#83 = DIRECTION ( 'NONE',  ( 1.000000000000000000, 0.000000000000000000, 0.000000000000000000 ) ) ;
#84 = PLANE ( 'NONE',  #146 ) ;
#85 = CIRCLE ( 'NONE', #71, 4.000000000000000000 ) ;
#86 = CARTESIAN_POINT ( 'NONE',  ( 0.000000000000000000, 0.000000000000000000, 3.199999999999980638 ) ) ;
#87 = DIRECTION ( 'NONE',  ( 0.000000000000000000, 0.000000000000000000, -1.000000000000000000 ) ) ;
#88 = DIRECTION ( 'NONE',  ( 0.000000000000000000, 0.000000000000000000, 1.000000000000000000 ) ) ;
#89 = VERTEX_POINT ( 'NONE', #137 ) ;
#90 = COORDINATED_UNIVERSAL_TIME_OFFSET ( 1, 0, .AHEAD. ) ;
#91 = FACE_OUTER_BOUND ( 'NONE', #217, .T. ) ;
#92 = EDGE_CURVE ( 'NONE', #89, #115, #85, .T. ) ;
#93 = CARTESIAN_POINT ( 'NONE',  ( 0.000000000000000000, 0.000000000000000000, 318.0000000000000000 ) ) ;
#94 = DIRECTION ( 'NONE',  ( 0.000000000000000000, 0.000000000000000000, 1.000000000000000000 ) ) ;
#95 = APPROVAL_PERSON_ORGANIZATION ( #99, #271, #17 ) ;
#96 = AXIS2_PLACEMENT_3D ( 'NONE', #37, #227, #299 ) ;
#97 = DIRECTION ( 'NONE',  ( 1.000000000000000000, 0.000000000000000000, 0.000000000000000000 ) ) ;
#98 = ADVANCED_FACE ( 'NONE', ( #183 ), #198, .T. ) ;
#99 = PERSON_AND_ORGANIZATION ( #5, #122 ) ;
#100 = CARTESIAN_POINT ( 'NONE',  ( 0.000000000000000000, 0.000000000000000000, 3.199999999999980638 ) ) ;
#101 = DATE_AND_TIME ( #281, #200 ) ;
#102 = VECTOR ( 'NONE', #121, 1000.000000000000000 ) ;
#103 = EDGE_LOOP ( 'NONE', ( #111, #32 ) ) ;
#104 = CALENDAR_DATE ( 2022, 7, 7 ) ;
#105 = AXIS2_PLACEMENT_3D ( 'NONE', #216, #88, #186 ) ;
#106 = EDGE_LOOP ( 'NONE', ( #154, #135 ) ) ;
#107 = AXIS2_PLACEMENT_3D ( 'NONE', #2, #166, #97 ) ;
#108 = CIRCLE ( 'NONE', #220, 2.300000000000000266 ) ;
#109 =( GEOMETRIC_REPRESENTATION_CONTEXT ( 3 ) GLOBAL_UNCERTAINTY_ASSIGNED_CONTEXT ( ( #174 ) ) GLOBAL_UNIT_ASSIGNED_CONTEXT ( ( #242, #51, #127 ) ) REPRESENTATION_CONTEXT ( 'NONE', 'WORKASPACE' ) );
#110 = TOROIDAL_SURFACE ( 'NONE', #31, 2.300000000000000266, 0.2000000000000000111 ) ;
#111 = ORIENTED_EDGE ( 'NONE', *, *, #239, .T. ) ;
#112 = ADVANCED_FACE ( 'NONE', ( #253 ), #16, .T. ) ;
#113 = FACE_BOUND ( 'NONE', #106, .T. ) ;
#114 = DIRECTION ( 'NONE',  ( 1.000000000000000000, 0.000000000000000000, 0.000000000000000000 ) ) ;
#115 = VERTEX_POINT ( 'NONE', #47 ) ;
#116 = CC_DESIGN_PERSON_AND_ORGANIZATION_ASSIGNMENT ( #232, #28, ( #81 ) ) ;
#117 = DIRECTION ( 'NONE',  ( -0.000000000000000000, -0.000000000000000000, -1.000000000000000000 ) ) ;
#118 = APPLICATION_CONTEXT ( 'configuration controlled 3d designs of mechanical parts and assemblies' ) ;
#119 = COORDINATED_UNIVERSAL_TIME_OFFSET ( 1, 0, .AHEAD. ) ;
#120 = DIRECTION ( 'NONE',  ( 0.000000000000000000, 0.000000000000000000, 1.000000000000000000 ) ) ;
#121 = DIRECTION ( 'NONE',  ( -0.000000000000000000, -0.000000000000000000, -1.000000000000000000 ) ) ;
#122 = ORGANIZATION ( 'NEURÈENÝ', 'NEURÈENÝ', '' ) ;
#123 = DIRECTION ( 'NONE',  ( 1.224646799147353207E-16, 1.000000000000000000, -0.000000000000000000 ) ) ;
#124 = CARTESIAN_POINT ( 'NONE',  ( 0.000000000000000000, 0.000000000000000000, 3.199999999999980638 ) ) ;
#125 = CARTESIAN_POINT ( 'NONE',  ( 0.000000000000000000, 0.000000000000000000, 3.199999999999980638 ) ) ;
#126 = EDGE_CURVE ( 'NONE', #221, #79, #176, .T. ) ;
#127 =( NAMED_UNIT ( * ) SI_UNIT ( $, .STERADIAN. ) SOLID_ANGLE_UNIT ( ) );
#128 = TOROIDAL_SURFACE ( 'NONE', #293, 2.300000000000000266, 0.2000000000000000111 ) ;
#129 = DIRECTION ( 'NONE',  ( 1.000000000000000000, 0.000000000000000000, 0.000000000000000000 ) ) ;
#130 = APPROVAL_STATUS ( 'not_yet_approved' ) ;
#131 = DESIGN_CONTEXT ( 'detailed design', #118, 'design' ) ;
#132 = ORIENTED_EDGE ( 'NONE', *, *, #215, .F. ) ;
#133 = ORIENTED_EDGE ( 'NONE', *, *, #244, .T. ) ;
#134 = CC_DESIGN_PERSON_AND_ORGANIZATION_ASSIGNMENT ( #141, #4, ( #19 ) ) ;
#135 = ORIENTED_EDGE ( 'NONE', *, *, #69, .T. ) ;
#136 = ORIENTED_EDGE ( 'NONE', *, *, #52, .T. ) ;
#137 = CARTESIAN_POINT ( 'NONE',  ( -4.000000000000000000, 0.000000000000000000, 0.000000000000000000 ) ) ;
#138 = DIRECTION ( 'NONE',  ( 0.000000000000000000, 0.000000000000000000, 1.000000000000000000 ) ) ;
#139 = APPROVAL_PERSON_ORGANIZATION ( #29, #58, #143 ) ;
#140 = EDGE_LOOP ( 'NONE', ( #197, #251, #258, #162 ) ) ;
#141 = PERSON_AND_ORGANIZATION ( #5, #122 ) ;
#142 = EDGE_LOOP ( 'NONE', ( #15, #272 ) ) ;
#143 = APPROVAL_ROLE ( '' ) ;
#144 = DIRECTION ( 'NONE',  ( -0.000000000000000000, -0.000000000000000000, -1.000000000000000000 ) ) ;
#145 = DIRECTION ( 'NONE',  ( -0.000000000000000000, -0.000000000000000000, -1.000000000000000000 ) ) ;
#146 = AXIS2_PLACEMENT_3D ( 'NONE', #252, #201, #182 ) ;
#147 = FACE_OUTER_BOUND ( 'NONE', #7, .T. ) ;
#148 = DIRECTION ( 'NONE',  ( -0.000000000000000000, -0.000000000000000000, -1.000000000000000000 ) ) ;
#149 = LINE ( 'NONE', #171, #159 ) ;
#150 = APPROVAL_DATE_TIME ( #286, #271 ) ;
#151 = APPROVAL_DATE_TIME ( #63, #58 ) ;
#152 = ADVANCED_FACE ( 'NONE', ( #27 ), #128, .F. ) ;
#153 = ORIENTED_EDGE ( 'NONE', *, *, #92, .T. ) ;
#154 = ORIENTED_EDGE ( 'NONE', *, *, #126, .T. ) ;
#155 = DIRECTION ( 'NONE',  ( 1.000000000000000000, 0.000000000000000000, 0.000000000000000000 ) ) ;
#156 = VERTEX_POINT ( 'NONE', #307 ) ;
#157 = CARTESIAN_POINT ( 'NONE',  ( 0.000000000000000000, 0.000000000000000000, 0.000000000000000000 ) ) ;
#158 = ORIENTED_EDGE ( 'NONE', *, *, #235, .T. ) ;
#159 = VECTOR ( 'NONE', #287, 1000.000000000000000 ) ;
#160 = PERSON_AND_ORGANIZATION_ROLE ( 'creator' ) ;
#161 = PRODUCT_DEFINITION ( 'NEZNÁMÝ', '', #54, #131 ) ;
#162 = ORIENTED_EDGE ( 'NONE', *, *, #69, .F. ) ;
#163 = APPROVAL_DATE_TIME ( #101, #9 ) ;
#164 = DIRECTION ( 'NONE',  ( -1.000000000000000000, 0.000000000000000000, 0.000000000000000000 ) ) ;
#165 = AXIS2_PLACEMENT_3D ( 'NONE', #263, #265, #129 ) ;
#166 = DIRECTION ( 'NONE',  ( 0.000000000000000000, 0.000000000000000000, 1.000000000000000000 ) ) ;
#167 = DIRECTION ( 'NONE',  ( 1.000000000000000000, 0.000000000000000000, 0.000000000000000000 ) ) ;
#168 = EDGE_CURVE ( 'NONE', #246, #223, #149, .T. ) ;
#169 = LINE ( 'NONE', #6, #102 ) ;
#170 = CALENDAR_DATE ( 2022, 7, 7 ) ;
#171 = CARTESIAN_POINT ( 'NONE',  ( -2.100000000000000089, 0.000000000000000000, 318.0000000000000000 ) ) ;
#172 = AXIS2_PLACEMENT_3D ( 'NONE', #236, #237, #24 ) ;
#173 = EDGE_CURVE ( 'NONE', #80, #33, #297, .T. ) ;
#174 = UNCERTAINTY_MEASURE_WITH_UNIT (LENGTH_MEASURE( 1.000000000000000082E-05 ), #242, 'distance_accuracy_value', 'NONE');
#175 = ADVANCED_FACE ( 'NONE', ( #282 ), #234, .T. ) ;
#176 = CIRCLE ( 'NONE', #256, 2.300000000000000266 ) ;
#177 = ORIENTED_EDGE ( 'NONE', *, *, #126, .F. ) ;
#178 = DIRECTION ( 'NONE',  ( 1.000000000000000000, 0.000000000000000000, -0.000000000000000000 ) ) ;
#179 = CIRCLE ( 'NONE', #165, 2.100000000000000089 ) ;
#180 = EDGE_CURVE ( 'NONE', #115, #89, #53, .T. ) ;
#181 = DIRECTION ( 'NONE',  ( 0.000000000000000000, -1.000000000000000000, 0.000000000000000000 ) ) ;
#182 = DIRECTION ( 'NONE',  ( 1.000000000000000000, 0.000000000000000000, -0.000000000000000000 ) ) ;
#183 = FACE_OUTER_BOUND ( 'NONE', #142, .T. ) ;
#184 = AXIS2_PLACEMENT_3D ( 'NONE', #75, #264, #167 ) ;
#185 = EDGE_CURVE ( 'NONE', #11, #246, #268, .T. ) ;
#186 = DIRECTION ( 'NONE',  ( 1.000000000000000000, 0.000000000000000000, 0.000000000000000000 ) ) ;
#187 = FACE_OUTER_BOUND ( 'NONE', #298, .T. ) ;
#188 = DATE_AND_TIME ( #170, #50 ) ;
#189 = LINE ( 'NONE', #45, #70 ) ;
#190 = CYLINDRICAL_SURFACE ( 'NONE', #172, 4.000000000000000000 ) ;
#191 = ADVANCED_FACE ( 'NONE', ( #91 ), #283, .T. ) ;
#192 = DIRECTION ( 'NONE',  ( -0.000000000000000000, -0.000000000000000000, -1.000000000000000000 ) ) ;
#193 = APPROVAL_STATUS ( 'not_yet_approved' ) ;
#194 = DIRECTION ( 'NONE',  ( 0.000000000000000000, 0.000000000000000000, 1.000000000000000000 ) ) ;
#195 = COORDINATED_UNIVERSAL_TIME_OFFSET ( 1, 0, .AHEAD. ) ;
#196 = PERSON_AND_ORGANIZATION ( #5, #122 ) ;
#197 = ORIENTED_EDGE ( 'NONE', *, *, #244, .F. ) ;
#198 = PLANE ( 'NONE',  #96 ) ;
#199 = AXIS2_PLACEMENT_3D ( 'NONE', #100, #94, #238 ) ;
#200 = LOCAL_TIME ( 12, 23, 56.00000000000000000, #90 ) ;
#201 = DIRECTION ( 'NONE',  ( 0.000000000000000000, 0.000000000000000000, 1.000000000000000000 ) ) ;
#202 = ORIENTED_EDGE ( 'NONE', *, *, #203, .F. ) ;
#203 = EDGE_CURVE ( 'NONE', #80, #115, #169, .T. ) ;
#204 = ORIENTED_EDGE ( 'NONE', *, *, #168, .F. ) ;
#205 = DATE_TIME_ROLE ( 'classification_date' ) ;
#206 = CIRCLE ( 'NONE', #77, 0.2000000000000000944 ) ;
#207 = DIRECTION ( 'NONE',  ( 1.000000000000000000, 0.000000000000000000, 0.000000000000000000 ) ) ;
#208 = CARTESIAN_POINT ( 'NONE',  ( 0.000000000000000000, 0.000000000000000000, 3.000000000000000000 ) ) ;
#209 = CC_DESIGN_PERSON_AND_ORGANIZATION_ASSIGNMENT ( #74, #269, ( #54 ) ) ;
#210 = DIRECTION ( 'NONE',  ( 0.000000000000000000, 0.000000000000000000, 1.000000000000000000 ) ) ;
#211 = DIRECTION ( 'NONE',  ( 1.000000000000000000, 0.000000000000000000, 0.000000000000000000 ) ) ;
#212 = CIRCLE ( 'NONE', #303, 0.2000000000000000944 ) ;
#213 = APPLICATION_PROTOCOL_DEFINITION ( 'international standard', 'config_control_design', 1994, #228 ) ;
#214 = DIRECTION ( 'NONE',  ( -1.000000000000000000, 0.000000000000000000, 0.000000000000000000 ) ) ;
#215 = EDGE_CURVE ( 'NONE', #246, #11, #179, .T. ) ;
#216 = CARTESIAN_POINT ( 'NONE',  ( 0.000000000000000000, 0.000000000000000000, 0.000000000000000000 ) ) ;
#217 = EDGE_LOOP ( 'NONE', ( #57, #248, #218, #292 ) ) ;
#218 = ORIENTED_EDGE ( 'NONE', *, *, #180, .T. ) ;
#219 = LOCAL_TIME ( 12, 23, 56.00000000000000000, #243 ) ;
#220 = AXIS2_PLACEMENT_3D ( 'NONE', #59, #117, #155 ) ;
#221 = VERTEX_POINT ( 'NONE', #23 ) ;
#222 = CC_DESIGN_PERSON_AND_ORGANIZATION_ASSIGNMENT ( #196, #278, ( #161 ) ) ;
#223 = VERTEX_POINT ( 'NONE', #43 ) ;
#224 = CLOSED_SHELL ( 'NONE', ( #20, #175, #191, #276, #3, #40, #112, #98, #152 ) ) ;
#225 = ORIENTED_EDGE ( 'NONE', *, *, #185, .F. ) ;
#226 = DIRECTION ( 'NONE',  ( 0.000000000000000000, 0.000000000000000000, 1.000000000000000000 ) ) ;
#227 = DIRECTION ( 'NONE',  ( 0.000000000000000000, 0.000000000000000000, 1.000000000000000000 ) ) ;
#228 = APPLICATION_CONTEXT ( 'configuration controlled 3d designs of mechanical parts and assemblies' ) ;
#229 = VECTOR ( 'NONE', #38, 1000.000000000000000 ) ;
#230 = ORIENTED_EDGE ( 'NONE', *, *, #239, .F. ) ;
#231 = EDGE_LOOP ( 'NONE', ( #280, #132, #56, #158 ) ) ;
#232 = PERSON_AND_ORGANIZATION ( #5, #122 ) ;
#233 = DIRECTION ( 'NONE',  ( -1.000000000000000000, 0.000000000000000000, 0.000000000000000000 ) ) ;
#234 = CYLINDRICAL_SURFACE ( 'NONE', #48, 2.100000000000000089 ) ;
#235 = EDGE_CURVE ( 'NONE', #223, #156, #30, .T. ) ;
#236 = CARTESIAN_POINT ( 'NONE',  ( 0.000000000000000000, 0.000000000000000000, 3.000000000000000000 ) ) ;
#237 = DIRECTION ( 'NONE',  ( -0.000000000000000000, -0.000000000000000000, -1.000000000000000000 ) ) ;
#238 = DIRECTION ( 'NONE',  ( 1.000000000000000000, 0.000000000000000000, 0.000000000000000000 ) ) ;
#239 = EDGE_CURVE ( 'NONE', #33, #80, #67, .T. ) ;
#240 = CIRCLE ( 'NONE', #10, 2.100000000000000089 ) ;
#241 = PERSON_AND_ORGANIZATION ( #5, #122 ) ;
#242 =( LENGTH_UNIT ( ) NAMED_UNIT ( * ) SI_UNIT ( .MILLI., .METRE. ) );
#243 = COORDINATED_UNIVERSAL_TIME_OFFSET ( 1, 0, .AHEAD. ) ;
#244 = EDGE_CURVE ( 'NONE', #223, #79, #212, .T. ) ;
#245 = ORIENTED_EDGE ( 'NONE', *, *, #294, .T. ) ;
#246 = VERTEX_POINT ( 'NONE', #267 ) ;
#247 = PRODUCT_RELATED_PRODUCT_CATEGORY ( 'detail', '', ( #19 ) ) ;
#248 = ORIENTED_EDGE ( 'NONE', *, *, #203, .T. ) ;
#249 = CC_DESIGN_APPROVAL ( #58, ( #54 ) ) ;
#250 = CC_DESIGN_APPROVAL ( #9, ( #81 ) ) ;
#251 = ORIENTED_EDGE ( 'NONE', *, *, #294, .F. ) ;
#252 = CARTESIAN_POINT ( 'NONE',  ( 0.000000000000000000, 0.000000000000000000, 3.000000000000000000 ) ) ;
#253 = FACE_OUTER_BOUND ( 'NONE', #231, .T. ) ;
#254 = CC_DESIGN_SECURITY_CLASSIFICATION ( #81, ( #54 ) ) ;
#255 = CC_DESIGN_DATE_AND_TIME_ASSIGNMENT ( #188, #205, ( #81 ) ) ;
#256 = AXIS2_PLACEMENT_3D ( 'NONE', #284, #144, #22 ) ;
#257 = APPROVAL_STATUS ( 'not_yet_approved' ) ;
#258 = ORIENTED_EDGE ( 'NONE', *, *, #25, .T. ) ;
#259 = ADVANCED_BREP_SHAPE_REPRESENTATION ( '7f1a', ( #34, #105 ), #109 ) ;
#260 = SECURITY_CLASSIFICATION_LEVEL ( 'unclassified' ) ;
#261 = CARTESIAN_POINT ( 'NONE',  ( -4.000000000000000000, 0.000000000000000000, 3.000000000000000000 ) ) ;
#262 = SHAPE_DEFINITION_REPRESENTATION ( #279, #259 ) ;
#263 = CARTESIAN_POINT ( 'NONE',  ( 0.000000000000000000, 0.000000000000000000, 318.0000000000000000 ) ) ;
#264 = DIRECTION ( 'NONE',  ( 0.000000000000000000, 0.000000000000000000, 1.000000000000000000 ) ) ;
#265 = DIRECTION ( 'NONE',  ( 0.000000000000000000, 0.000000000000000000, 1.000000000000000000 ) ) ;
#266 = EDGE_CURVE ( 'NONE', #11, #156, #189, .T. ) ;
#267 = CARTESIAN_POINT ( 'NONE',  ( -2.100000000000000089, 0.000000000000000000, 318.0000000000000000 ) ) ;
#268 = CIRCLE ( 'NONE', #288, 2.100000000000000089 ) ;
#269 = PERSON_AND_ORGANIZATION_ROLE ( 'design_supplier' ) ;
#270 = LOCAL_TIME ( 12, 23, 56.00000000000000000, #119 ) ;
#271 = APPROVAL ( #193, 'NEURÈENÝ' ) ;
#272 = ORIENTED_EDGE ( 'NONE', *, *, #185, .T. ) ;
#273 = AXIS2_PLACEMENT_3D ( 'NONE', #66, #73, #164 ) ;
#274 = CARTESIAN_POINT ( 'NONE',  ( -4.000000000000000000, 0.000000000000000000, 3.000000000000000000 ) ) ;
#275 = FACE_OUTER_BOUND ( 'NONE', #103, .T. ) ;
#276 = ADVANCED_FACE ( 'NONE', ( #147 ), #190, .T. ) ;
#277 = ORIENTED_EDGE ( 'NONE', *, *, #92, .F. ) ;
#278 = PERSON_AND_ORGANIZATION_ROLE ( 'creator' ) ;
#279 = PRODUCT_DEFINITION_SHAPE ( 'NONE', 'NONE',  #161 ) ;
#280 = ORIENTED_EDGE ( 'NONE', *, *, #266, .F. ) ;
#281 = CALENDAR_DATE ( 2022, 7, 7 ) ;
#282 = FACE_OUTER_BOUND ( 'NONE', #295, .T. ) ;
#283 = CYLINDRICAL_SURFACE ( 'NONE', #273, 4.000000000000000000 ) ;
#284 = CARTESIAN_POINT ( 'NONE',  ( 0.000000000000000000, 0.000000000000000000, 3.000000000000000000 ) ) ;
#285 = DIRECTION ( 'NONE',  ( 1.000000000000000000, 0.000000000000000000, 0.000000000000000000 ) ) ;
#286 = DATE_AND_TIME ( #104, #270 ) ;
#287 = DIRECTION ( 'NONE',  ( -0.000000000000000000, -0.000000000000000000, -1.000000000000000000 ) ) ;
#288 = AXIS2_PLACEMENT_3D ( 'NONE', #72, #194, #285 ) ;
#289 = CALENDAR_DATE ( 2022, 7, 7 ) ;
#290 = CALENDAR_DATE ( 2022, 7, 7 ) ;
#291 = ORIENTED_EDGE ( 'NONE', *, *, #180, .F. ) ;
#292 = ORIENTED_EDGE ( 'NONE', *, *, #52, .F. ) ;
#293 = AXIS2_PLACEMENT_3D ( 'NONE', #125, #68, #211 ) ;
#294 = EDGE_CURVE ( 'NONE', #156, #223, #240, .T. ) ;
#295 = EDGE_LOOP ( 'NONE', ( #225, #13, #245, #204 ) ) ;
#296 = CARTESIAN_POINT ( 'NONE',  ( 0.000000000000000000, 0.000000000000000000, 0.000000000000000000 ) ) ;
#297 = CIRCLE ( 'NONE', #107, 4.000000000000000000 ) ;
#298 = EDGE_LOOP ( 'NONE', ( #62, #133, #177, #301 ) ) ;
#299 = DIRECTION ( 'NONE',  ( 1.000000000000000000, 0.000000000000000000, -0.000000000000000000 ) ) ;
#300 = EDGE_LOOP ( 'NONE', ( #277, #291 ) ) ;
#301 = ORIENTED_EDGE ( 'NONE', *, *, #25, .F. ) ;
#302 = CC_DESIGN_PERSON_AND_ORGANIZATION_ASSIGNMENT ( #241, #160, ( #54 ) ) ;
#303 = AXIS2_PLACEMENT_3D ( 'NONE', #44, #123, #306 ) ;
#304 = DATE_AND_TIME ( #290, #219 ) ;
#305 = CARTESIAN_POINT ( 'NONE',  ( 0.000000000000000000, 0.000000000000000000, 318.0000000000000000 ) ) ;
#306 = DIRECTION ( 'NONE',  ( -1.000000000000000000, 1.224646799147353207E-16, 0.000000000000000000 ) ) ;
#307 = CARTESIAN_POINT ( 'NONE',  ( 2.100000000000000089, 2.571758278209441957E-16, 3.199999999999980638 ) ) ;
ENDSEC;
END-ISO-10303-21;
