ISO-10303-21;
HEADER;
FILE_DESCRIPTION (( 'STEP AP203' ),
    '1' );
FILE_NAME ('6b0c.STEP',
    '2023-02-12T11:34:57',
    ( '' ),
    ( '' ),
    'SwSTEP 2.0',
    'SolidWorks 2019',
    '' );
FILE_SCHEMA (( 'CONFIG_CONTROL_DESIGN' ));
ENDSEC;

DATA;
#1 = EDGE_CURVE ( 'NONE', #214, #179, #40, .T. ) ;
#2 = AXIS2_PLACEMENT_3D ( 'NONE', #216, #198, #42 ) ;
#3 = ORIENTED_EDGE ( 'NONE', *, *, #162, .F. ) ;
#4 = APPROVAL_ROLE ( '' ) ;
#5 = VERTEX_POINT ( 'NONE', #197 ) ;
#6 = PERSON ( 'NEURÈENÝ', 'NEURÈENÝ', 'NEURÈENÝ', ('NEURÈENÝ'), ('NEURÈENÝ'), ('NEURÈENÝ') ) ;
#7 = DIRECTION ( 'NONE',  ( -0.000000000000000000, -0.000000000000000000, -1.000000000000000000 ) ) ;
#8 = EDGE_LOOP ( 'NONE', ( #105, #86 ) ) ;
#9 = EDGE_CURVE ( 'NONE', #18, #37, #21, .T. ) ;
#10 = FACE_OUTER_BOUND ( 'NONE', #61, .T. ) ;
#11 = CARTESIAN_POINT ( 'NONE',  ( -4.500000000000000888, 0.000000000000000000, 500.0000000000000000 ) ) ;
#12 = CYLINDRICAL_SURFACE ( 'NONE', #28, 7.000000000000000000 ) ;
#13 = FACE_OUTER_BOUND ( 'NONE', #119, .T. ) ;
#14 = CC_DESIGN_PERSON_AND_ORGANIZATION_ASSIGNMENT ( #171, #56, ( #84 ) ) ;
#15 = DIRECTION ( 'NONE',  ( 0.000000000000000000, 0.000000000000000000, 1.000000000000000000 ) ) ;
#16 = APPLICATION_PROTOCOL_DEFINITION ( 'international standard', 'config_control_design', 1994, #234 ) ;
#17 = EDGE_CURVE ( 'NONE', #18, #5, #120, .T. ) ;
#18 = VERTEX_POINT ( 'NONE', #22 ) ;
#19 = VERTEX_POINT ( 'NONE', #178 ) ;
#20 = EDGE_CURVE ( 'NONE', #19, #179, #123, .T. ) ;
#21 = LINE ( 'NONE', #177, #82 ) ;
#22 = CARTESIAN_POINT ( 'NONE',  ( 4.500000000000000888, 5.510910596163089556E-16, 500.0000000000000000 ) ) ;
#23 = APPROVAL_PERSON_ORGANIZATION ( #153, #34, #107 ) ;
#24 = ORIENTED_EDGE ( 'NONE', *, *, #154, .F. ) ;
#25 = EDGE_CURVE ( 'NONE', #199, #37, #36, .T. ) ;
#26 = LINE ( 'NONE', #109, #49 ) ;
#27 = DIRECTION ( 'NONE',  ( 0.000000000000000000, 0.000000000000000000, 1.000000000000000000 ) ) ;
#28 = AXIS2_PLACEMENT_3D ( 'NONE', #72, #70, #48 ) ;
#29 = CARTESIAN_POINT ( 'NONE',  ( 0.000000000000000000, 0.000000000000000000, 500.0000000000000000 ) ) ;
#30 = DIRECTION ( 'NONE',  ( 1.000000000000000000, 0.000000000000000000, 0.000000000000000000 ) ) ;
#31 = CARTESIAN_POINT ( 'NONE',  ( 0.000000000000000000, 0.000000000000000000, 500.0000000000000000 ) ) ;
#32 = CC_DESIGN_SECURITY_CLASSIFICATION ( #172, ( #252 ) ) ;
#33 = CALENDAR_DATE ( 2023, 12, 2 ) ;
#34 = APPROVAL ( #230, 'NEURÈENÝ' ) ;
#35 = DATE_AND_TIME ( #57, #210 ) ;
#36 = CIRCLE ( 'NONE', #46, 4.500000000000000888 ) ;
#37 = VERTEX_POINT ( 'NONE', #168 ) ;
#38 = PERSON_AND_ORGANIZATION ( #6, #58 ) ;
#39 = CC_DESIGN_DATE_AND_TIME_ASSIGNMENT ( #157, #80, ( #244 ) ) ;
#40 = LINE ( 'NONE', #121, #249 ) ;
#41 = CALENDAR_DATE ( 2023, 12, 2 ) ;
#42 = DIRECTION ( 'NONE',  ( 1.000000000000000000, 0.000000000000000000, 0.000000000000000000 ) ) ;
#43 = ORIENTED_EDGE ( 'NONE', *, *, #212, .F. ) ;
#44 = ADVANCED_FACE ( 'NONE', ( #241 ), #128, .F. ) ;
#45 = DIRECTION ( 'NONE',  ( 0.000000000000000000, 0.000000000000000000, 1.000000000000000000 ) ) ;
#46 = AXIS2_PLACEMENT_3D ( 'NONE', #52, #204, #30 ) ;
#47 = CARTESIAN_POINT ( 'NONE',  ( 0.000000000000000000, 0.000000000000000000, 5.000000000000000000 ) ) ;
#48 = DIRECTION ( 'NONE',  ( -1.000000000000000000, 0.000000000000000000, 0.000000000000000000 ) ) ;
#49 = VECTOR ( 'NONE', #245, 1000.000000000000000 ) ;
#50 = DIRECTION ( 'NONE',  ( 1.000000000000000000, 0.000000000000000000, -0.000000000000000000 ) ) ;
#51 = AXIS2_PLACEMENT_3D ( 'NONE', #182, #27, #112 ) ;
#52 = CARTESIAN_POINT ( 'NONE',  ( 0.000000000000000000, 0.000000000000000000, 5.000000000000000000 ) ) ;
#53 = MANIFOLD_SOLID_BREP ( 'Pøidat vysunutím3', #150 ) ;
#54 = DIRECTION ( 'NONE',  ( 1.000000000000000000, 0.000000000000000000, 0.000000000000000000 ) ) ;
#55 = AXIS2_PLACEMENT_3D ( 'NONE', #47, #15, #248 ) ;
#56 = PERSON_AND_ORGANIZATION_ROLE ( 'design_owner' ) ;
#57 = CALENDAR_DATE ( 2023, 12, 2 ) ;
#58 = ORGANIZATION ( 'NEURÈENÝ', 'NEURÈENÝ', '' ) ;
#59 = ADVANCED_FACE ( 'NONE', ( #200 ), #92, .T. ) ;
#60 = ORIENTED_EDGE ( 'NONE', *, *, #202, .T. ) ;
#61 = EDGE_LOOP ( 'NONE', ( #102, #142 ) ) ;
#62 = PERSON_AND_ORGANIZATION_ROLE ( 'design_supplier' ) ;
#63 = LOCAL_TIME ( 12, 34, 57.00000000000000000, #188 ) ;
#64 = EDGE_LOOP ( 'NONE', ( #134, #176, #101, #24 ) ) ;
#65 = CIRCLE ( 'NONE', #51, 7.000000000000000000 ) ;
#66 = ORIENTED_EDGE ( 'NONE', *, *, #1, .F. ) ;
#67 = APPROVAL ( #192, 'NEURÈENÝ' ) ;
#68 = EDGE_LOOP ( 'NONE', ( #103, #60, #175, #66 ) ) ;
#69 = CARTESIAN_POINT ( 'NONE',  ( 0.000000000000000000, 0.000000000000000000, 500.0000000000000000 ) ) ;
#70 = DIRECTION ( 'NONE',  ( -0.000000000000000000, -0.000000000000000000, -1.000000000000000000 ) ) ;
#71 = APPROVAL_DATE_TIME ( #220, #34 ) ;
#72 = CARTESIAN_POINT ( 'NONE',  ( 0.000000000000000000, 0.000000000000000000, 5.000000000000000000 ) ) ;
#73 = DIRECTION ( 'NONE',  ( -0.000000000000000000, -0.000000000000000000, -1.000000000000000000 ) ) ;
#74 = CIRCLE ( 'NONE', #186, 4.500000000000000888 ) ;
#75 = FACE_OUTER_BOUND ( 'NONE', #64, .T. ) ;
#76 = AXIS2_PLACEMENT_3D ( 'NONE', #246, #113, #124 ) ;
#77 = APPLICATION_PROTOCOL_DEFINITION ( 'international standard', 'config_control_design', 1994, #240 ) ;
#78 = DATE_TIME_ROLE ( 'classification_date' ) ;
#79 = CIRCLE ( 'NONE', #143, 7.000000000000000000 ) ;
#80 = DATE_TIME_ROLE ( 'creation_date' ) ;
#81 = AXIS2_PLACEMENT_3D ( 'NONE', #31, #73, #95 ) ;
#82 = VECTOR ( 'NONE', #7, 1000.000000000000000 ) ;
#83 = ADVANCED_FACE ( 'NONE', ( #13 ), #219, .T. ) ;
#84 = PRODUCT ( '6b0c', '6b0c', '', ( #196 ) ) ;
#85 = ADVANCED_FACE ( 'NONE', ( #222, #226 ), #125, .T. ) ;
#86 = ORIENTED_EDGE ( 'NONE', *, *, #254, .T. ) ;
#87 = DATE_AND_TIME ( #33, #136 ) ;
#88 = ORIENTED_EDGE ( 'NONE', *, *, #202, .F. ) ;
#89 = DESIGN_CONTEXT ( 'detailed design', #234, 'design' ) ;
#90 = DIRECTION ( 'NONE',  ( -0.000000000000000000, -0.000000000000000000, -1.000000000000000000 ) ) ;
#91 = AXIS2_PLACEMENT_3D ( 'NONE', #69, #187, #50 ) ;
#92 = CYLINDRICAL_SURFACE ( 'NONE', #93, 7.000000000000000000 ) ;
#93 = AXIS2_PLACEMENT_3D ( 'NONE', #205, #90, #185 ) ;
#94 = DIRECTION ( 'NONE',  ( 1.000000000000000000, 0.000000000000000000, 0.000000000000000000 ) ) ;
#95 = DIRECTION ( 'NONE',  ( -1.000000000000000000, 0.000000000000000000, 0.000000000000000000 ) ) ;
#96 = PERSON_AND_ORGANIZATION_ROLE ( 'classification_officer' ) ;
#97 = DIRECTION ( 'NONE',  ( 0.000000000000000000, 0.000000000000000000, 1.000000000000000000 ) ) ;
#98 = PERSON_AND_ORGANIZATION ( #6, #58 ) ;
#99 = PRODUCT_RELATED_PRODUCT_CATEGORY ( 'detail', '', ( #84 ) ) ;
#100 = PERSON_AND_ORGANIZATION ( #6, #58 ) ;
#101 = ORIENTED_EDGE ( 'NONE', *, *, #232, .T. ) ;
#102 = ORIENTED_EDGE ( 'NONE', *, *, #212, .T. ) ;
#103 = ORIENTED_EDGE ( 'NONE', *, *, #254, .F. ) ;
#104 = AXIS2_PLACEMENT_3D ( 'NONE', #126, #201, #203 ) ;
#105 = ORIENTED_EDGE ( 'NONE', *, *, #162, .T. ) ;
#106 = ADVANCED_FACE ( 'NONE', ( #75 ), #165, .T. ) ;
#107 = APPROVAL_ROLE ( '' ) ;
#108 = ORIENTED_EDGE ( 'NONE', *, *, #154, .T. ) ;
#109 = CARTESIAN_POINT ( 'NONE',  ( 7.000000000000000000, 8.572527594031473190E-16, 5.000000000000000000 ) ) ;
#110 = CC_DESIGN_DATE_AND_TIME_ASSIGNMENT ( #251, #78, ( #172 ) ) ;
#111 = DIRECTION ( 'NONE',  ( 1.000000000000000000, 0.000000000000000000, 0.000000000000000000 ) ) ;
#112 = DIRECTION ( 'NONE',  ( 1.000000000000000000, 0.000000000000000000, 0.000000000000000000 ) ) ;
#113 = DIRECTION ( 'NONE',  ( 0.000000000000000000, 0.000000000000000000, 1.000000000000000000 ) ) ;
#114 = PLANE ( 'NONE',  #91 ) ;
#115 = PERSON_AND_ORGANIZATION_ROLE ( 'creator' ) ;
#116 = APPROVAL_STATUS ( 'not_yet_approved' ) ;
#117 = CALENDAR_DATE ( 2023, 12, 2 ) ;
#118 = ORIENTED_EDGE ( 'NONE', *, *, #9, .F. ) ;
#119 = EDGE_LOOP ( 'NONE', ( #118, #43, #108, #236 ) ) ;
#120 = CIRCLE ( 'NONE', #2, 4.500000000000000888 ) ;
#121 = CARTESIAN_POINT ( 'NONE',  ( -7.000000000000000000, 0.000000000000000000, 5.000000000000000000 ) ) ;
#122 = EDGE_LOOP ( 'NONE', ( #218, #135 ) ) ;
#123 = CIRCLE ( 'NONE', #195, 7.000000000000000000 ) ;
#124 = DIRECTION ( 'NONE',  ( 1.000000000000000000, 0.000000000000000000, -0.000000000000000000 ) ) ;
#125 = PLANE ( 'NONE',  #55 ) ;
#126 = CARTESIAN_POINT ( 'NONE',  ( 0.000000000000000000, 0.000000000000000000, 0.000000000000000000 ) ) ;
#127 = DIRECTION ( 'NONE',  ( 0.000000000000000000, 0.000000000000000000, 1.000000000000000000 ) ) ;
#128 = PLANE ( 'NONE',  #76 ) ;
#129 = COORDINATED_UNIVERSAL_TIME_OFFSET ( 1, 0, .AHEAD. ) ;
#130 =( LENGTH_UNIT ( ) NAMED_UNIT ( * ) SI_UNIT ( .MILLI., .METRE. ) );
#131 = APPROVAL_ROLE ( '' ) ;
#132 = DIRECTION ( 'NONE',  ( 1.000000000000000000, 0.000000000000000000, 0.000000000000000000 ) ) ;
#133 = CC_DESIGN_APPROVAL ( #184, ( #252 ) ) ;
#134 = ORIENTED_EDGE ( 'NONE', *, *, #17, .F. ) ;
#135 = ORIENTED_EDGE ( 'NONE', *, *, #232, .F. ) ;
#136 = LOCAL_TIME ( 12, 34, 57.00000000000000000, #129 ) ;
#137 = SECURITY_CLASSIFICATION_LEVEL ( 'unclassified' ) ;
#138 = CC_DESIGN_APPROVAL ( #67, ( #244 ) ) ;
#139 = ORIENTED_EDGE ( 'NONE', *, *, #225, .F. ) ;
#140 = CC_DESIGN_PERSON_AND_ORGANIZATION_ASSIGNMENT ( #38, #115, ( #252 ) ) ;
#141 = DIRECTION ( 'NONE',  ( -0.000000000000000000, -0.000000000000000000, -1.000000000000000000 ) ) ;
#142 = ORIENTED_EDGE ( 'NONE', *, *, #17, .T. ) ;
#143 = AXIS2_PLACEMENT_3D ( 'NONE', #231, #190, #189 ) ;
#144 = FACE_OUTER_BOUND ( 'NONE', #68, .T. ) ;
#145 = CARTESIAN_POINT ( 'NONE',  ( 0.000000000000000000, 0.000000000000000000, 500.0000000000000000 ) ) ;
#146 = COORDINATED_UNIVERSAL_TIME_OFFSET ( 1, 0, .AHEAD. ) ;
#147 = DIRECTION ( 'NONE',  ( 0.000000000000000000, 0.000000000000000000, 1.000000000000000000 ) ) ;
#148 = DIRECTION ( 'NONE',  ( -0.000000000000000000, -0.000000000000000000, -1.000000000000000000 ) ) ;
#149 = CC_DESIGN_PERSON_AND_ORGANIZATION_ASSIGNMENT ( #213, #96, ( #172 ) ) ;
#150 = CLOSED_SHELL ( 'NONE', ( #106, #206, #59, #85, #44, #83, #174 ) ) ;
#151 = DIRECTION ( 'NONE',  ( -1.000000000000000000, 0.000000000000000000, 0.000000000000000000 ) ) ;
#152 = APPROVAL_DATE_TIME ( #35, #67 ) ;
#153 = PERSON_AND_ORGANIZATION ( #6, #58 ) ;
#154 = EDGE_CURVE ( 'NONE', #5, #199, #164, .T. ) ;
#155 = CIRCLE ( 'NONE', #104, 7.000000000000000000 ) ;
#156 = CARTESIAN_POINT ( 'NONE',  ( 0.000000000000000000, 0.000000000000000000, 0.000000000000000000 ) ) ;
#157 = DATE_AND_TIME ( #117, #242 ) ;
#158 = ORIENTED_EDGE ( 'NONE', *, *, #1, .T. ) ;
#159 = PERSON_AND_ORGANIZATION ( #6, #58 ) ;
#160 = EDGE_LOOP ( 'NONE', ( #88, #3, #158, #194 ) ) ;
#161 = VERTEX_POINT ( 'NONE', #180 ) ;
#162 = EDGE_CURVE ( 'NONE', #214, #161, #65, .T. ) ;
#163 = CARTESIAN_POINT ( 'NONE',  ( 0.000000000000000000, 0.000000000000000000, 0.000000000000000000 ) ) ;
#164 = LINE ( 'NONE', #11, #215 ) ;
#165 = CYLINDRICAL_SURFACE ( 'NONE', #173, 4.500000000000000888 ) ;
#166 = CARTESIAN_POINT ( 'NONE',  ( 0.000000000000000000, 0.000000000000000000, 5.000000000000000000 ) ) ;
#167 = CC_DESIGN_APPROVAL ( #34, ( #172 ) ) ;
#168 = CARTESIAN_POINT ( 'NONE',  ( 4.500000000000000888, 5.510910596163089556E-16, 5.000000000000000000 ) ) ;
#169 = CC_DESIGN_PERSON_AND_ORGANIZATION_ASSIGNMENT ( #238, #253, ( #244 ) ) ;
#170 = CALENDAR_DATE ( 2023, 12, 2 ) ;
#171 = PERSON_AND_ORGANIZATION ( #6, #58 ) ;
#172 = SECURITY_CLASSIFICATION ( '', '', #137 ) ;
#173 = AXIS2_PLACEMENT_3D ( 'NONE', #29, #148, #151 ) ;
#174 = ADVANCED_FACE ( 'NONE', ( #10 ), #114, .T. ) ;
#175 = ORIENTED_EDGE ( 'NONE', *, *, #20, .T. ) ;
#176 = ORIENTED_EDGE ( 'NONE', *, *, #9, .T. ) ;
#177 = CARTESIAN_POINT ( 'NONE',  ( 4.500000000000000888, 5.510910596163089556E-16, 500.0000000000000000 ) ) ;
#178 = CARTESIAN_POINT ( 'NONE',  ( 7.000000000000000000, 8.572527594031473190E-16, 0.000000000000000000 ) ) ;
#179 = VERTEX_POINT ( 'NONE', #183 ) ;
#180 = CARTESIAN_POINT ( 'NONE',  ( 7.000000000000000000, 8.572527594031473190E-16, 5.000000000000000000 ) ) ;
#181 = AXIS2_PLACEMENT_3D ( 'NONE', #145, #147, #94 ) ;
#182 = CARTESIAN_POINT ( 'NONE',  ( 0.000000000000000000, 0.000000000000000000, 5.000000000000000000 ) ) ;
#183 = CARTESIAN_POINT ( 'NONE',  ( -7.000000000000000000, 0.000000000000000000, 0.000000000000000000 ) ) ;
#184 = APPROVAL ( #116, 'NEURÈENÝ' ) ;
#185 = DIRECTION ( 'NONE',  ( -1.000000000000000000, 0.000000000000000000, 0.000000000000000000 ) ) ;
#186 = AXIS2_PLACEMENT_3D ( 'NONE', #166, #127, #132 ) ;
#187 = DIRECTION ( 'NONE',  ( 0.000000000000000000, 0.000000000000000000, 1.000000000000000000 ) ) ;
#188 = COORDINATED_UNIVERSAL_TIME_OFFSET ( 1, 0, .AHEAD. ) ;
#189 = DIRECTION ( 'NONE',  ( 1.000000000000000000, 0.000000000000000000, 0.000000000000000000 ) ) ;
#190 = DIRECTION ( 'NONE',  ( 0.000000000000000000, 0.000000000000000000, 1.000000000000000000 ) ) ;
#191 = APPROVAL_PERSON_ORGANIZATION ( #98, #67, #131 ) ;
#192 = APPROVAL_STATUS ( 'not_yet_approved' ) ;
#193 = LOCAL_TIME ( 12, 34, 57.00000000000000000, #146 ) ;
#194 = ORIENTED_EDGE ( 'NONE', *, *, #225, .T. ) ;
#195 = AXIS2_PLACEMENT_3D ( 'NONE', #163, #45, #111 ) ;
#196 = MECHANICAL_CONTEXT ( 'NONE', #240, 'mechanical' ) ;
#197 = CARTESIAN_POINT ( 'NONE',  ( -4.500000000000000888, 0.000000000000000000, 500.0000000000000000 ) ) ;
#198 = DIRECTION ( 'NONE',  ( 0.000000000000000000, 0.000000000000000000, 1.000000000000000000 ) ) ;
#199 = VERTEX_POINT ( 'NONE', #243 ) ;
#200 = FACE_OUTER_BOUND ( 'NONE', #160, .T. ) ;
#201 = DIRECTION ( 'NONE',  ( 0.000000000000000000, 0.000000000000000000, 1.000000000000000000 ) ) ;
#202 = EDGE_CURVE ( 'NONE', #161, #19, #26, .T. ) ;
#203 = DIRECTION ( 'NONE',  ( 1.000000000000000000, 0.000000000000000000, 0.000000000000000000 ) ) ;
#204 = DIRECTION ( 'NONE',  ( 0.000000000000000000, 0.000000000000000000, 1.000000000000000000 ) ) ;
#205 = CARTESIAN_POINT ( 'NONE',  ( 0.000000000000000000, 0.000000000000000000, 5.000000000000000000 ) ) ;
#206 = ADVANCED_FACE ( 'NONE', ( #144 ), #12, .T. ) ;
#207 = COORDINATED_UNIVERSAL_TIME_OFFSET ( 1, 0, .AHEAD. ) ;
#208 = PRODUCT_DEFINITION_SHAPE ( 'NONE', 'NONE',  #244 ) ;
#209 = APPROVAL_DATE_TIME ( #87, #184 ) ;
#210 = LOCAL_TIME ( 12, 34, 57.00000000000000000, #255 ) ;
#211 = ORIENTED_EDGE ( 'NONE', *, *, #20, .F. ) ;
#212 = EDGE_CURVE ( 'NONE', #5, #18, #239, .T. ) ;
#213 = PERSON_AND_ORGANIZATION ( #6, #58 ) ;
#214 = VERTEX_POINT ( 'NONE', #221 ) ;
#215 = VECTOR ( 'NONE', #224, 1000.000000000000000 ) ;
#216 = CARTESIAN_POINT ( 'NONE',  ( 0.000000000000000000, 0.000000000000000000, 500.0000000000000000 ) ) ;
#217 = SHAPE_DEFINITION_REPRESENTATION ( #208, #233 ) ;
#218 = ORIENTED_EDGE ( 'NONE', *, *, #25, .F. ) ;
#219 = CYLINDRICAL_SURFACE ( 'NONE', #81, 4.500000000000000888 ) ;
#220 = DATE_AND_TIME ( #41, #193 ) ;
#221 = CARTESIAN_POINT ( 'NONE',  ( -7.000000000000000000, 0.000000000000000000, 5.000000000000000000 ) ) ;
#222 = FACE_BOUND ( 'NONE', #122, .T. ) ;
#223 = AXIS2_PLACEMENT_3D ( 'NONE', #156, #97, #54 ) ;
#224 = DIRECTION ( 'NONE',  ( -0.000000000000000000, -0.000000000000000000, -1.000000000000000000 ) ) ;
#225 = EDGE_CURVE ( 'NONE', #179, #19, #155, .T. ) ;
#226 = FACE_OUTER_BOUND ( 'NONE', #8, .T. ) ;
#227 = UNCERTAINTY_MEASURE_WITH_UNIT (LENGTH_MEASURE( 1.000000000000000082E-05 ), #130, 'distance_accuracy_value', 'NONE');
#228 =( NAMED_UNIT ( * ) SI_UNIT ( $, .STERADIAN. ) SOLID_ANGLE_UNIT ( ) );
#229 = APPROVAL_PERSON_ORGANIZATION ( #100, #184, #4 ) ;
#230 = APPROVAL_STATUS ( 'not_yet_approved' ) ;
#231 = CARTESIAN_POINT ( 'NONE',  ( 0.000000000000000000, 0.000000000000000000, 5.000000000000000000 ) ) ;
#232 = EDGE_CURVE ( 'NONE', #37, #199, #74, .T. ) ;
#233 = ADVANCED_BREP_SHAPE_REPRESENTATION ( '6b0c', ( #53, #223 ), #247 ) ;
#234 = APPLICATION_CONTEXT ( 'configuration controlled 3d designs of mechanical parts and assemblies' ) ;
#235 = CC_DESIGN_PERSON_AND_ORGANIZATION_ASSIGNMENT ( #159, #62, ( #252 ) ) ;
#236 = ORIENTED_EDGE ( 'NONE', *, *, #25, .T. ) ;
#237 = EDGE_LOOP ( 'NONE', ( #139, #211 ) ) ;
#238 = PERSON_AND_ORGANIZATION ( #6, #58 ) ;
#239 = CIRCLE ( 'NONE', #181, 4.500000000000000888 ) ;
#240 = APPLICATION_CONTEXT ( 'configuration controlled 3d designs of mechanical parts and assemblies' ) ;
#241 = FACE_OUTER_BOUND ( 'NONE', #237, .T. ) ;
#242 = LOCAL_TIME ( 12, 34, 57.00000000000000000, #207 ) ;
#243 = CARTESIAN_POINT ( 'NONE',  ( -4.500000000000000888, 0.000000000000000000, 5.000000000000000000 ) ) ;
#244 = PRODUCT_DEFINITION ( 'NEZNÁMÝ', '', #252, #89 ) ;
#245 = DIRECTION ( 'NONE',  ( -0.000000000000000000, -0.000000000000000000, -1.000000000000000000 ) ) ;
#246 = CARTESIAN_POINT ( 'NONE',  ( 0.000000000000000000, 0.000000000000000000, 0.000000000000000000 ) ) ;
#247 =( GEOMETRIC_REPRESENTATION_CONTEXT ( 3 ) GLOBAL_UNCERTAINTY_ASSIGNED_CONTEXT ( ( #227 ) ) GLOBAL_UNIT_ASSIGNED_CONTEXT ( ( #130, #250, #228 ) ) REPRESENTATION_CONTEXT ( 'NONE', 'WORKASPACE' ) );
#248 = DIRECTION ( 'NONE',  ( 1.000000000000000000, 0.000000000000000000, -0.000000000000000000 ) ) ;
#249 = VECTOR ( 'NONE', #141, 1000.000000000000000 ) ;
#250 =( NAMED_UNIT ( * ) PLANE_ANGLE_UNIT ( ) SI_UNIT ( $, .RADIAN. ) );
#251 = DATE_AND_TIME ( #170, #63 ) ;
#252 = PRODUCT_DEFINITION_FORMATION_WITH_SPECIFIED_SOURCE ( 'LIBOVOLNÝ', '', #84, .NOT_KNOWN. ) ;
#253 = PERSON_AND_ORGANIZATION_ROLE ( 'creator' ) ;
#254 = EDGE_CURVE ( 'NONE', #161, #214, #79, .T. ) ;
#255 = COORDINATED_UNIVERSAL_TIME_OFFSET ( 1, 0, .AHEAD. ) ;
ENDSEC;
END-ISO-10303-21;
