ISO-10303-21;
HEADER;
FILE_DESCRIPTION (( 'STEP AP203' ),
    '1' );
FILE_NAME ('fb3a.STEP',
    '2022-07-07T10:18:16',
    ( '' ),
    ( '' ),
    'SwSTEP 2.0',
    'SolidWorks 2019',
    '' );
FILE_SCHEMA (( 'CONFIG_CONTROL_DESIGN' ));
ENDSEC;

DATA;
#1 = EDGE_CURVE ( 'NONE', #299, #264, #235, .T. ) ;
#2 = CALENDAR_DATE ( 2022, 7, 7 ) ;
#3 = AXIS2_PLACEMENT_3D ( 'NONE', #270, #200, #176 ) ;
#4 = ORIENTED_EDGE ( 'NONE', *, *, #256, .F. ) ;
#5 = CALENDAR_DATE ( 2022, 7, 7 ) ;
#6 = ORIENTED_EDGE ( 'NONE', *, *, #297, .F. ) ;
#7 = AXIS2_PLACEMENT_3D ( 'NONE', #276, #130, #304 ) ;
#8 = APPROVAL_DATE_TIME ( #23, #20 ) ;
#9 = DIRECTION ( 'NONE',  ( -1.000000000000000000, 0.000000000000000000, 0.000000000000000000 ) ) ;
#10 = ADVANCED_FACE ( 'NONE', ( #275 ), #125, .T. ) ;
#11 = ORIENTED_EDGE ( 'NONE', *, *, #1, .T. ) ;
#12 = CARTESIAN_POINT ( 'NONE',  ( 0.000000000000000000, 0.000000000000000000, 3.000000000000000000 ) ) ;
#13 = CIRCLE ( 'NONE', #282, 5.000000000000000000 ) ;
#14 = CIRCLE ( 'NONE', #217, 2.600000000000000089 ) ;
#15 = PRODUCT ( 'fb3a', 'fb3a', '', ( #162 ) ) ;
#16 = ORIENTED_EDGE ( 'NONE', *, *, #266, .T. ) ;
#17 = CARTESIAN_POINT ( 'NONE',  ( 0.000000000000000000, 0.000000000000000000, 3.199999999999994404 ) ) ;
#18 = CARTESIAN_POINT ( 'NONE',  ( 0.000000000000000000, 0.000000000000000000, 103.0000000000000142 ) ) ;
#19 = DIRECTION ( 'NONE',  ( -0.000000000000000000, -0.000000000000000000, -1.000000000000000000 ) ) ;
#20 = APPROVAL ( #265, 'NEURÈENÝ' ) ;
#21 = CYLINDRICAL_SURFACE ( 'NONE', #27, 5.000000000000000000 ) ;
#22 = CIRCLE ( 'NONE', #61, 5.000000000000000000 ) ;
#23 = DATE_AND_TIME ( #69, #238 ) ;
#24 = ADVANCED_FACE ( 'NONE', ( #35 ), #57, .F. ) ;
#25 =( NAMED_UNIT ( * ) PLANE_ANGLE_UNIT ( ) SI_UNIT ( $, .RADIAN. ) );
#26 = ORIENTED_EDGE ( 'NONE', *, *, #41, .F. ) ;
#27 = AXIS2_PLACEMENT_3D ( 'NONE', #300, #230, #302 ) ;
#28 = EDGE_CURVE ( 'NONE', #249, #264, #154, .T. ) ;
#29 = EDGE_LOOP ( 'NONE', ( #4, #99, #198, #104 ) ) ;
#30 = CARTESIAN_POINT ( 'NONE',  ( 0.000000000000000000, 0.000000000000000000, 103.0000000000000142 ) ) ;
#31 = EDGE_CURVE ( 'NONE', #299, #223, #247, .T. ) ;
#32 = CIRCLE ( 'NONE', #58, 2.799999999999999822 ) ;
#33 = SHAPE_DEFINITION_REPRESENTATION ( #144, #174 ) ;
#34 = DIRECTION ( 'NONE',  ( 0.000000000000000000, -1.000000000000000000, 0.000000000000000000 ) ) ;
#35 = FACE_OUTER_BOUND ( 'NONE', #51, .T. ) ;
#36 = ADVANCED_FACE ( 'NONE', ( #177 ), #128, .T. ) ;
#37 = VERTEX_POINT ( 'NONE', #246 ) ;
#38 = LOCAL_TIME ( 12, 18, 16.00000000000000000, #146 ) ;
#39 = CARTESIAN_POINT ( 'NONE',  ( -5.000000000000000000, 0.000000000000000000, 3.000000000000000000 ) ) ;
#40 = FACE_OUTER_BOUND ( 'NONE', #191, .T. ) ;
#41 = EDGE_CURVE ( 'NONE', #147, #37, #22, .T. ) ;
#42 = CIRCLE ( 'NONE', #182, 5.000000000000000000 ) ;
#43 = CARTESIAN_POINT ( 'NONE',  ( 0.000000000000000000, 0.000000000000000000, 103.0000000000000142 ) ) ;
#44 = CARTESIAN_POINT ( 'NONE',  ( 2.600000000000000089, 3.184081677783118191E-16, 3.199999999999994404 ) ) ;
#45 = EDGE_CURVE ( 'NONE', #240, #223, #274, .T. ) ;
#46 = DIRECTION ( 'NONE',  ( 0.000000000000000000, 0.000000000000000000, 1.000000000000000000 ) ) ;
#47 = ORIENTED_EDGE ( 'NONE', *, *, #256, .T. ) ;
#48 = PERSON_AND_ORGANIZATION ( #301, #269 ) ;
#49 = PRODUCT_DEFINITION_FORMATION_WITH_SPECIFIED_SOURCE ( 'LIBOVOLNÝ', '', #15, .NOT_KNOWN. ) ;
#50 = APPROVAL_ROLE ( '' ) ;
#51 = EDGE_LOOP ( 'NONE', ( #78, #290 ) ) ;
#52 = APPROVAL_STATUS ( 'not_yet_approved' ) ;
#53 = APPROVAL ( #141, 'NEURÈENÝ' ) ;
#54 = PERSON_AND_ORGANIZATION_ROLE ( 'creator' ) ;
#55 = CARTESIAN_POINT ( 'NONE',  ( 2.799999999999999822, 0.000000000000000000, 3.199999999999994404 ) ) ;
#56 = DIRECTION ( 'NONE',  ( 0.000000000000000000, 0.000000000000000000, -1.000000000000000000 ) ) ;
#57 = PLANE ( 'NONE',  #292 ) ;
#58 = AXIS2_PLACEMENT_3D ( 'NONE', #255, #88, #185 ) ;
#59 = CARTESIAN_POINT ( 'NONE',  ( -2.600000000000000089, 0.000000000000000000, 103.0000000000000142 ) ) ;
#60 = CARTESIAN_POINT ( 'NONE',  ( 0.000000000000000000, 0.000000000000000000, 3.000000000000000000 ) ) ;
#61 = AXIS2_PLACEMENT_3D ( 'NONE', #12, #150, #250 ) ;
#62 = CARTESIAN_POINT ( 'NONE',  ( 0.000000000000000000, 0.000000000000000000, 103.0000000000000142 ) ) ;
#63 = APPROVAL_PERSON_ORGANIZATION ( #72, #20, #50 ) ;
#64 = DIRECTION ( 'NONE',  ( 0.000000000000000000, 0.000000000000000000, 1.000000000000000000 ) ) ;
#65 = LINE ( 'NONE', #39, #248 ) ;
#66 = CARTESIAN_POINT ( 'NONE',  ( 2.600000000000000089, 3.184081677783118191E-16, 103.0000000000000142 ) ) ;
#67 = TOROIDAL_SURFACE ( 'NONE', #85, 2.799999999999999822, 0.2000000000000000111 ) ;
#68 = LINE ( 'NONE', #206, #188 ) ;
#69 = CALENDAR_DATE ( 2022, 7, 7 ) ;
#70 = ORIENTED_EDGE ( 'NONE', *, *, #45, .T. ) ;
#71 = PERSON_AND_ORGANIZATION ( #301, #269 ) ;
#72 = PERSON_AND_ORGANIZATION ( #301, #269 ) ;
#73 = CC_DESIGN_SECURITY_CLASSIFICATION ( #151, ( #49 ) ) ;
#74 = COORDINATED_UNIVERSAL_TIME_OFFSET ( 1, 0, .AHEAD. ) ;
#75 = ORIENTED_EDGE ( 'NONE', *, *, #28, .F. ) ;
#76 = APPLICATION_PROTOCOL_DEFINITION ( 'international standard', 'config_control_design', 1994, #103 ) ;
#77 = ORIENTED_EDGE ( 'NONE', *, *, #28, .T. ) ;
#78 = ORIENTED_EDGE ( 'NONE', *, *, #210, .F. ) ;
#79 = AXIS2_PLACEMENT_3D ( 'NONE', #18, #279, #232 ) ;
#80 = EDGE_CURVE ( 'NONE', #223, #249, #259, .T. ) ;
#81 = EDGE_LOOP ( 'NONE', ( #117, #16, #173, #97 ) ) ;
#82 = DIRECTION ( 'NONE',  ( -1.000000000000000000, 0.000000000000000000, 0.000000000000000000 ) ) ;
#83 = VECTOR ( 'NONE', #152, 1000.000000000000000 ) ;
#84 = DIRECTION ( 'NONE',  ( -0.000000000000000000, -0.000000000000000000, -1.000000000000000000 ) ) ;
#85 = AXIS2_PLACEMENT_3D ( 'NONE', #157, #212, #132 ) ;
#86 = ORIENTED_EDGE ( 'NONE', *, *, #218, .T. ) ;
#87 = ADVANCED_FACE ( 'NONE', ( #127, #224 ), #107, .T. ) ;
#88 = DIRECTION ( 'NONE',  ( -0.000000000000000000, -0.000000000000000000, -1.000000000000000000 ) ) ;
#89 = CARTESIAN_POINT ( 'NONE',  ( -5.000000000000000000, 0.000000000000000000, 3.000000000000000000 ) ) ;
#90 = CC_DESIGN_DATE_AND_TIME_ASSIGNMENT ( #192, #166, ( #233 ) ) ;
#91 = CARTESIAN_POINT ( 'NONE',  ( 0.000000000000000000, 0.000000000000000000, 103.0000000000000142 ) ) ;
#92 = FACE_OUTER_BOUND ( 'NONE', #245, .T. ) ;
#93 = LINE ( 'NONE', #181, #194 ) ;
#94 = AXIS2_PLACEMENT_3D ( 'NONE', #216, #46, #306 ) ;
#95 = PERSON_AND_ORGANIZATION ( #301, #269 ) ;
#96 = PERSON_AND_ORGANIZATION ( #301, #269 ) ;
#97 = ORIENTED_EDGE ( 'NONE', *, *, #45, .F. ) ;
#98 = DATE_AND_TIME ( #2, #213 ) ;
#99 = ORIENTED_EDGE ( 'NONE', *, *, #80, .T. ) ;
#100 = ADVANCED_FACE ( 'NONE', ( #208 ), #21, .T. ) ;
#101 = AXIS2_PLACEMENT_3D ( 'NONE', #91, #183, #261 ) ;
#102 = CALENDAR_DATE ( 2022, 7, 7 ) ;
#103 = APPLICATION_CONTEXT ( 'configuration controlled 3d designs of mechanical parts and assemblies' ) ;
#104 = ORIENTED_EDGE ( 'NONE', *, *, #1, .F. ) ;
#105 = EDGE_LOOP ( 'NONE', ( #122, #237, #70, #47 ) ) ;
#106 = ORIENTED_EDGE ( 'NONE', *, *, #199, .F. ) ;
#107 = PLANE ( 'NONE',  #231 ) ;
#108 = CARTESIAN_POINT ( 'NONE',  ( 5.000000000000000000, 6.123233995736766282E-16, 0.000000000000000000 ) ) ;
#109 = PLANE ( 'NONE',  #111 ) ;
#110 = DIRECTION ( 'NONE',  ( -0.000000000000000000, -0.000000000000000000, -1.000000000000000000 ) ) ;
#111 = AXIS2_PLACEMENT_3D ( 'NONE', #62, #159, #155 ) ;
#112 = CARTESIAN_POINT ( 'NONE',  ( -2.600000000000000089, 0.000000000000000000, 3.199999999999994404 ) ) ;
#113 = CARTESIAN_POINT ( 'NONE',  ( -2.600000000000000089, 0.000000000000000000, 103.0000000000000142 ) ) ;
#114 = APPLICATION_PROTOCOL_DEFINITION ( 'international standard', 'config_control_design', 1994, #184 ) ;
#115 = APPROVAL_PERSON_ORGANIZATION ( #71, #53, #214 ) ;
#116 = CALENDAR_DATE ( 2022, 7, 7 ) ;
#117 = ORIENTED_EDGE ( 'NONE', *, *, #143, .F. ) ;
#118 = COORDINATED_UNIVERSAL_TIME_OFFSET ( 1, 0, .AHEAD. ) ;
#119 = ORIENTED_EDGE ( 'NONE', *, *, #225, .T. ) ;
#120 = AXIS2_PLACEMENT_3D ( 'NONE', #124, #172, #82 ) ;
#121 = DATE_TIME_ROLE ( 'classification_date' ) ;
#122 = ORIENTED_EDGE ( 'NONE', *, *, #266, .F. ) ;
#123 = DIRECTION ( 'NONE',  ( 1.000000000000000000, 0.000000000000000000, 0.000000000000000000 ) ) ;
#124 = CARTESIAN_POINT ( 'NONE',  ( 0.000000000000000000, 0.000000000000000000, 3.000000000000000000 ) ) ;
#125 = CYLINDRICAL_SURFACE ( 'NONE', #120, 5.000000000000000000 ) ;
#126 = CC_DESIGN_PERSON_AND_ORGANIZATION_ASSIGNMENT ( #242, #189, ( #151 ) ) ;
#127 = FACE_BOUND ( 'NONE', #195, .T. ) ;
#128 = CYLINDRICAL_SURFACE ( 'NONE', #258, 2.600000000000000089 ) ;
#129 = DIRECTION ( 'NONE',  ( 1.000000000000000000, 0.000000000000000000, 0.000000000000000000 ) ) ;
#130 = DIRECTION ( 'NONE',  ( 0.000000000000000000, 0.000000000000000000, 1.000000000000000000 ) ) ;
#131 = MANIFOLD_SOLID_BREP ( 'Zaoblit1', #142 ) ;
#132 = DIRECTION ( 'NONE',  ( 1.000000000000000000, 0.000000000000000000, 0.000000000000000000 ) ) ;
#133 = CIRCLE ( 'NONE', #294, 2.600000000000000089 ) ;
#134 = DIRECTION ( 'NONE',  ( 0.000000000000000000, 0.000000000000000000, 1.000000000000000000 ) ) ;
#135 = DIRECTION ( 'NONE',  ( 1.000000000000000000, 0.000000000000000000, 0.000000000000000000 ) ) ;
#136 = AXIS2_PLACEMENT_3D ( 'NONE', #60, #84, #123 ) ;
#137 = VERTEX_POINT ( 'NONE', #108 ) ;
#138 = EDGE_CURVE ( 'NONE', #137, #149, #13, .T. ) ;
#139 =( LENGTH_UNIT ( ) NAMED_UNIT ( * ) SI_UNIT ( .MILLI., .METRE. ) );
#140 = EDGE_LOOP ( 'NONE', ( #293, #26, #148, #285 ) ) ;
#141 = APPROVAL_STATUS ( 'not_yet_approved' ) ;
#142 = CLOSED_SHELL ( 'NONE', ( #241, #160, #100, #10, #87, #24, #36, #251, #204 ) ) ;
#143 = EDGE_CURVE ( 'NONE', #167, #240, #202, .T. ) ;
#144 = PRODUCT_DEFINITION_SHAPE ( 'NONE', 'NONE',  #233 ) ;
#145 = AXIS2_PLACEMENT_3D ( 'NONE', #280, #229, #129 ) ;
#146 = COORDINATED_UNIVERSAL_TIME_OFFSET ( 1, 0, .AHEAD. ) ;
#147 = VERTEX_POINT ( 'NONE', #89 ) ;
#148 = ORIENTED_EDGE ( 'NONE', *, *, #199, .T. ) ;
#149 = VERTEX_POINT ( 'NONE', #257 ) ;
#150 = DIRECTION ( 'NONE',  ( 0.000000000000000000, 0.000000000000000000, 1.000000000000000000 ) ) ;
#151 = SECURITY_CLASSIFICATION ( '', '', #164 ) ;
#152 = DIRECTION ( 'NONE',  ( -0.000000000000000000, -0.000000000000000000, -1.000000000000000000 ) ) ;
#153 = DIRECTION ( 'NONE',  ( -1.000000000000000000, 1.224646799147353207E-16, 0.000000000000000000 ) ) ;
#154 = CIRCLE ( 'NONE', #136, 2.799999999999999822 ) ;
#155 = DIRECTION ( 'NONE',  ( 1.000000000000000000, 0.000000000000000000, -0.000000000000000000 ) ) ;
#156 = LOCAL_TIME ( 12, 18, 16.00000000000000000, #236 ) ;
#157 = CARTESIAN_POINT ( 'NONE',  ( 0.000000000000000000, 0.000000000000000000, 3.199999999999994404 ) ) ;
#158 = FACE_OUTER_BOUND ( 'NONE', #81, .T. ) ;
#159 = DIRECTION ( 'NONE',  ( 0.000000000000000000, 0.000000000000000000, 1.000000000000000000 ) ) ;
#160 = ADVANCED_FACE ( 'NONE', ( #158 ), #205, .T. ) ;
#161 = DIRECTION ( 'NONE',  ( 0.000000000000000000, 0.000000000000000000, 1.000000000000000000 ) ) ;
#162 = MECHANICAL_CONTEXT ( 'NONE', #184, 'mechanical' ) ;
#163 = EDGE_LOOP ( 'NONE', ( #6, #86, #272, #106 ) ) ;
#164 = SECURITY_CLASSIFICATION_LEVEL ( 'unclassified' ) ;
#165 = DESIGN_CONTEXT ( 'detailed design', #103, 'design' ) ;
#166 = DATE_TIME_ROLE ( 'creation_date' ) ;
#167 = VERTEX_POINT ( 'NONE', #66 ) ;
#168 = PERSON_AND_ORGANIZATION ( #301, #269 ) ;
#169 = APPROVAL_DATE_TIME ( #98, #305 ) ;
#170 = CC_DESIGN_PERSON_AND_ORGANIZATION_ASSIGNMENT ( #268, #54, ( #49 ) ) ;
#171 = CC_DESIGN_APPROVAL ( #53, ( #233 ) ) ;
#172 = DIRECTION ( 'NONE',  ( -0.000000000000000000, -0.000000000000000000, -1.000000000000000000 ) ) ;
#173 = ORIENTED_EDGE ( 'NONE', *, *, #31, .T. ) ;
#174 = ADVANCED_BREP_SHAPE_REPRESENTATION ( 'fb3a', ( #131, #94 ), #226 ) ;
#175 = PRODUCT_RELATED_PRODUCT_CATEGORY ( 'detail', '', ( #15 ) ) ;
#176 = DIRECTION ( 'NONE',  ( 1.000000000000000000, 0.000000000000000000, 0.000000000000000000 ) ) ;
#177 = FACE_OUTER_BOUND ( 'NONE', #105, .T. ) ;
#178 = CARTESIAN_POINT ( 'NONE',  ( -2.799999999999999822, 3.429011037612588783E-16, 3.199999999999994404 ) ) ;
#179 = DIRECTION ( 'NONE',  ( 0.000000000000000000, 0.000000000000000000, 1.000000000000000000 ) ) ;
#180 = AXIS2_PLACEMENT_3D ( 'NONE', #178, #227, #153 ) ;
#181 = CARTESIAN_POINT ( 'NONE',  ( 5.000000000000000000, 6.123233995736766282E-16, 3.000000000000000000 ) ) ;
#182 = AXIS2_PLACEMENT_3D ( 'NONE', #281, #161, #135 ) ;
#183 = DIRECTION ( 'NONE',  ( 0.000000000000000000, 0.000000000000000000, 1.000000000000000000 ) ) ;
#184 = APPLICATION_CONTEXT ( 'configuration controlled 3d designs of mechanical parts and assemblies' ) ;
#185 = DIRECTION ( 'NONE',  ( 1.000000000000000000, 0.000000000000000000, 0.000000000000000000 ) ) ;
#186 = CC_DESIGN_PERSON_AND_ORGANIZATION_ASSIGNMENT ( #95, #287, ( #49 ) ) ;
#187 = DIRECTION ( 'NONE',  ( 1.000000000000000000, 0.000000000000000000, 0.000000000000000000 ) ) ;
#188 = VECTOR ( 'NONE', #278, 1000.000000000000000 ) ;
#189 = PERSON_AND_ORGANIZATION_ROLE ( 'classification_officer' ) ;
#190 = PERSON_AND_ORGANIZATION_ROLE ( 'creator' ) ;
#191 = EDGE_LOOP ( 'NONE', ( #262, #193, #11, #75 ) ) ;
#192 = DATE_AND_TIME ( #5, #38 ) ;
#193 = ORIENTED_EDGE ( 'NONE', *, *, #31, .F. ) ;
#194 = VECTOR ( 'NONE', #19, 1000.000000000000000 ) ;
#195 = EDGE_LOOP ( 'NONE', ( #119, #77 ) ) ;
#196 = CC_DESIGN_DATE_AND_TIME_ASSIGNMENT ( #263, #121, ( #151 ) ) ;
#197 = EDGE_LOOP ( 'NONE', ( #296, #243 ) ) ;
#198 = ORIENTED_EDGE ( 'NONE', *, *, #225, .F. ) ;
#199 = EDGE_CURVE ( 'NONE', #147, #149, #65, .T. ) ;
#200 = DIRECTION ( 'NONE',  ( 0.000000000000000000, 0.000000000000000000, 1.000000000000000000 ) ) ;
#201 = DIRECTION ( 'NONE',  ( 0.000000000000000000, 0.000000000000000000, 1.000000000000000000 ) ) ;
#202 = CIRCLE ( 'NONE', #101, 2.600000000000000089 ) ;
#203 = CARTESIAN_POINT ( 'NONE',  ( 0.000000000000000000, 0.000000000000000000, 3.000000000000000000 ) ) ;
#204 = ADVANCED_FACE ( 'NONE', ( #40 ), #67, .F. ) ;
#205 = CYLINDRICAL_SURFACE ( 'NONE', #79, 2.600000000000000089 ) ;
#206 = CARTESIAN_POINT ( 'NONE',  ( 2.600000000000000089, 3.184081677783118191E-16, 103.0000000000000142 ) ) ;
#207 = AXIS2_PLACEMENT_3D ( 'NONE', #55, #34, #56 ) ;
#208 = FACE_OUTER_BOUND ( 'NONE', #163, .T. ) ;
#209 = CC_DESIGN_APPROVAL ( #305, ( #49 ) ) ;
#210 = EDGE_CURVE ( 'NONE', #149, #137, #244, .T. ) ;
#211 = FACE_OUTER_BOUND ( 'NONE', #29, .T. ) ;
#212 = DIRECTION ( 'NONE',  ( 0.000000000000000000, 0.000000000000000000, 1.000000000000000000 ) ) ;
#213 = LOCAL_TIME ( 12, 18, 16.00000000000000000, #118 ) ;
#214 = APPROVAL_ROLE ( '' ) ;
#215 = ORIENTED_EDGE ( 'NONE', *, *, #143, .T. ) ;
#216 = CARTESIAN_POINT ( 'NONE',  ( 0.000000000000000000, 0.000000000000000000, 0.000000000000000000 ) ) ;
#217 = AXIS2_PLACEMENT_3D ( 'NONE', #17, #179, #260 ) ;
#218 = EDGE_CURVE ( 'NONE', #37, #137, #93, .T. ) ;
#219 = COORDINATED_UNIVERSAL_TIME_OFFSET ( 1, 0, .AHEAD. ) ;
#220 = DIRECTION ( 'NONE',  ( 0.000000000000000000, 0.000000000000000000, 1.000000000000000000 ) ) ;
#221 = CC_DESIGN_APPROVAL ( #20, ( #151 ) ) ;
#222 = CARTESIAN_POINT ( 'NONE',  ( 0.000000000000000000, 0.000000000000000000, 0.000000000000000000 ) ) ;
#223 = VERTEX_POINT ( 'NONE', #112 ) ;
#224 = FACE_OUTER_BOUND ( 'NONE', #197, .T. ) ;
#225 = EDGE_CURVE ( 'NONE', #264, #249, #32, .T. ) ;
#226 =( GEOMETRIC_REPRESENTATION_CONTEXT ( 3 ) GLOBAL_UNCERTAINTY_ASSIGNED_CONTEXT ( ( #267 ) ) GLOBAL_UNIT_ASSIGNED_CONTEXT ( ( #139, #25, #239 ) ) REPRESENTATION_CONTEXT ( 'NONE', 'WORKASPACE' ) );
#227 = DIRECTION ( 'NONE',  ( 1.224646799147353207E-16, 1.000000000000000000, -0.000000000000000000 ) ) ;
#228 = DIRECTION ( 'NONE',  ( 1.000000000000000000, 0.000000000000000000, 0.000000000000000000 ) ) ;
#229 = DIRECTION ( 'NONE',  ( 0.000000000000000000, 0.000000000000000000, 1.000000000000000000 ) ) ;
#230 = DIRECTION ( 'NONE',  ( -0.000000000000000000, -0.000000000000000000, -1.000000000000000000 ) ) ;
#231 = AXIS2_PLACEMENT_3D ( 'NONE', #203, #220, #252 ) ;
#232 = DIRECTION ( 'NONE',  ( -1.000000000000000000, 0.000000000000000000, 0.000000000000000000 ) ) ;
#233 = PRODUCT_DEFINITION ( 'NEZNÁMÝ', '', #49, #165 ) ;
#234 = CARTESIAN_POINT ( 'NONE',  ( 0.000000000000000000, 0.000000000000000000, 0.000000000000000000 ) ) ;
#235 = CIRCLE ( 'NONE', #207, 0.2000000000000000944 ) ;
#236 = COORDINATED_UNIVERSAL_TIME_OFFSET ( 1, 0, .AHEAD. ) ;
#237 = ORIENTED_EDGE ( 'NONE', *, *, #291, .F. ) ;
#238 = LOCAL_TIME ( 12, 18, 16.00000000000000000, #219 ) ;
#239 =( NAMED_UNIT ( * ) SI_UNIT ( $, .STERADIAN. ) SOLID_ANGLE_UNIT ( ) );
#240 = VERTEX_POINT ( 'NONE', #113 ) ;
#241 = ADVANCED_FACE ( 'NONE', ( #211 ), #253, .F. ) ;
#242 = PERSON_AND_ORGANIZATION ( #301, #269 ) ;
#243 = ORIENTED_EDGE ( 'NONE', *, *, #297, .T. ) ;
#244 = CIRCLE ( 'NONE', #7, 5.000000000000000000 ) ;
#245 = EDGE_LOOP ( 'NONE', ( #295, #215 ) ) ;
#246 = CARTESIAN_POINT ( 'NONE',  ( 5.000000000000000000, 6.123233995736766282E-16, 3.000000000000000000 ) ) ;
#247 = CIRCLE ( 'NONE', #3, 2.600000000000000089 ) ;
#248 = VECTOR ( 'NONE', #110, 1000.000000000000000 ) ;
#249 = VERTEX_POINT ( 'NONE', #303 ) ;
#250 = DIRECTION ( 'NONE',  ( 1.000000000000000000, 0.000000000000000000, 0.000000000000000000 ) ) ;
#251 = ADVANCED_FACE ( 'NONE', ( #92 ), #109, .T. ) ;
#252 = DIRECTION ( 'NONE',  ( 1.000000000000000000, 0.000000000000000000, -0.000000000000000000 ) ) ;
#253 = TOROIDAL_SURFACE ( 'NONE', #145, 2.799999999999999822, 0.2000000000000000111 ) ;
#254 = CARTESIAN_POINT ( 'NONE',  ( 2.799999999999999822, 0.000000000000000000, 2.999999999999997335 ) ) ;
#255 = CARTESIAN_POINT ( 'NONE',  ( 0.000000000000000000, 0.000000000000000000, 3.000000000000000000 ) ) ;
#256 = EDGE_CURVE ( 'NONE', #223, #299, #14, .T. ) ;
#257 = CARTESIAN_POINT ( 'NONE',  ( -5.000000000000000000, 0.000000000000000000, 0.000000000000000000 ) ) ;
#258 = AXIS2_PLACEMENT_3D ( 'NONE', #30, #271, #9 ) ;
#259 = CIRCLE ( 'NONE', #180, 0.2000000000000000944 ) ;
#260 = DIRECTION ( 'NONE',  ( 1.000000000000000000, 0.000000000000000000, 0.000000000000000000 ) ) ;
#261 = DIRECTION ( 'NONE',  ( 1.000000000000000000, 0.000000000000000000, 0.000000000000000000 ) ) ;
#262 = ORIENTED_EDGE ( 'NONE', *, *, #80, .F. ) ;
#263 = DATE_AND_TIME ( #102, #156 ) ;
#264 = VERTEX_POINT ( 'NONE', #254 ) ;
#265 = APPROVAL_STATUS ( 'not_yet_approved' ) ;
#266 = EDGE_CURVE ( 'NONE', #167, #299, #68, .T. ) ;
#267 = UNCERTAINTY_MEASURE_WITH_UNIT (LENGTH_MEASURE( 1.000000000000000082E-05 ), #139, 'distance_accuracy_value', 'NONE');
#268 = PERSON_AND_ORGANIZATION ( #301, #269 ) ;
#269 = ORGANIZATION ( 'NEURÈENÝ', 'NEURÈENÝ', '' ) ;
#270 = CARTESIAN_POINT ( 'NONE',  ( 0.000000000000000000, 0.000000000000000000, 3.199999999999994404 ) ) ;
#271 = DIRECTION ( 'NONE',  ( -0.000000000000000000, -0.000000000000000000, -1.000000000000000000 ) ) ;
#272 = ORIENTED_EDGE ( 'NONE', *, *, #138, .T. ) ;
#273 = APPROVAL_PERSON_ORGANIZATION ( #48, #305, #283 ) ;
#274 = LINE ( 'NONE', #59, #83 ) ;
#275 = FACE_OUTER_BOUND ( 'NONE', #140, .T. ) ;
#276 = CARTESIAN_POINT ( 'NONE',  ( 0.000000000000000000, 0.000000000000000000, 0.000000000000000000 ) ) ;
#277 = CC_DESIGN_PERSON_AND_ORGANIZATION_ASSIGNMENT ( #168, #284, ( #15 ) ) ;
#278 = DIRECTION ( 'NONE',  ( -0.000000000000000000, -0.000000000000000000, -1.000000000000000000 ) ) ;
#279 = DIRECTION ( 'NONE',  ( -0.000000000000000000, -0.000000000000000000, -1.000000000000000000 ) ) ;
#280 = CARTESIAN_POINT ( 'NONE',  ( 0.000000000000000000, 0.000000000000000000, 3.199999999999994404 ) ) ;
#281 = CARTESIAN_POINT ( 'NONE',  ( 0.000000000000000000, 0.000000000000000000, 3.000000000000000000 ) ) ;
#282 = AXIS2_PLACEMENT_3D ( 'NONE', #234, #64, #228 ) ;
#283 = APPROVAL_ROLE ( '' ) ;
#284 = PERSON_AND_ORGANIZATION_ROLE ( 'design_owner' ) ;
#285 = ORIENTED_EDGE ( 'NONE', *, *, #210, .T. ) ;
#286 = CC_DESIGN_PERSON_AND_ORGANIZATION_ASSIGNMENT ( #96, #190, ( #233 ) ) ;
#287 = PERSON_AND_ORGANIZATION_ROLE ( 'design_supplier' ) ;
#288 = LOCAL_TIME ( 12, 18, 16.00000000000000000, #74 ) ;
#289 = APPROVAL_DATE_TIME ( #307, #53 ) ;
#290 = ORIENTED_EDGE ( 'NONE', *, *, #138, .F. ) ;
#291 = EDGE_CURVE ( 'NONE', #240, #167, #133, .T. ) ;
#292 = AXIS2_PLACEMENT_3D ( 'NONE', #222, #201, #298 ) ;
#293 = ORIENTED_EDGE ( 'NONE', *, *, #218, .F. ) ;
#294 = AXIS2_PLACEMENT_3D ( 'NONE', #43, #134, #187 ) ;
#295 = ORIENTED_EDGE ( 'NONE', *, *, #291, .T. ) ;
#296 = ORIENTED_EDGE ( 'NONE', *, *, #41, .T. ) ;
#297 = EDGE_CURVE ( 'NONE', #37, #147, #42, .T. ) ;
#298 = DIRECTION ( 'NONE',  ( 1.000000000000000000, 0.000000000000000000, -0.000000000000000000 ) ) ;
#299 = VERTEX_POINT ( 'NONE', #44 ) ;
#300 = CARTESIAN_POINT ( 'NONE',  ( 0.000000000000000000, 0.000000000000000000, 3.000000000000000000 ) ) ;
#301 = PERSON ( 'NEURÈENÝ', 'NEURÈENÝ', 'NEURÈENÝ', ('NEURÈENÝ'), ('NEURÈENÝ'), ('NEURÈENÝ') ) ;
#302 = DIRECTION ( 'NONE',  ( -1.000000000000000000, 0.000000000000000000, 0.000000000000000000 ) ) ;
#303 = CARTESIAN_POINT ( 'NONE',  ( -2.799999999999999822, 3.429011037612589276E-16, 2.999999999999997335 ) ) ;
#304 = DIRECTION ( 'NONE',  ( 1.000000000000000000, 0.000000000000000000, 0.000000000000000000 ) ) ;
#305 = APPROVAL ( #52, 'NEURÈENÝ' ) ;
#306 = DIRECTION ( 'NONE',  ( 1.000000000000000000, 0.000000000000000000, 0.000000000000000000 ) ) ;
#307 = DATE_AND_TIME ( #116, #288 ) ;
ENDSEC;
END-ISO-10303-21;
