ISO-10303-21;
HEADER;
FILE_DESCRIPTION (( 'STEP AP203' ),
    '1' );
FILE_NAME ('be69.STEP',
    '2022-07-07T09:53:49',
    ( '' ),
    ( '' ),
    'SwSTEP 2.0',
    'SolidWorks 2019',
    '' );
FILE_SCHEMA (( 'CONFIG_CONTROL_DESIGN' ));
ENDSEC;

DATA;
#1 = APPROVAL_PERSON_ORGANIZATION ( #260, #306, #191 ) ;
#2 = ADVANCED_FACE ( 'NONE', ( #38 ), #156, .T. ) ;
#3 = CIRCLE ( 'NONE', #227, 0.1999999999999996503 ) ;
#4 = FACE_OUTER_BOUND ( 'NONE', #184, .T. ) ;
#5 = PERSON_AND_ORGANIZATION ( #208, #281 ) ;
#6 = DIRECTION ( 'NONE',  ( 1.000000000000000000, 0.000000000000000000, 0.000000000000000000 ) ) ;
#7 = DIRECTION ( 'NONE',  ( -0.000000000000000000, -0.000000000000000000, -1.000000000000000000 ) ) ;
#8 = CARTESIAN_POINT ( 'NONE',  ( 0.000000000000000000, 0.000000000000000000, 5.000000000000000000 ) ) ;
#9 = CARTESIAN_POINT ( 'NONE',  ( 0.000000000000000000, 0.000000000000000000, 0.000000000000000000 ) ) ;
#10 = ADVANCED_FACE ( 'NONE', ( #241, #58 ), #123, .T. ) ;
#11 = AXIS2_PLACEMENT_3D ( 'NONE', #21, #186, #242 ) ;
#12 = VERTEX_POINT ( 'NONE', #34 ) ;
#13 = VERTEX_POINT ( 'NONE', #286 ) ;
#14 = DIRECTION ( 'NONE',  ( 0.000000000000000000, 0.000000000000000000, 1.000000000000000000 ) ) ;
#15 = FACE_OUTER_BOUND ( 'NONE', #158, .T. ) ;
#16 = VERTEX_POINT ( 'NONE', #125 ) ;
#17 = CARTESIAN_POINT ( 'NONE',  ( -5.000000000000000888, 0.000000000000000000, 5.199999999999982414 ) ) ;
#18 = CIRCLE ( 'NONE', #190, 5.000000000000000888 ) ;
#19 = ADVANCED_FACE ( 'NONE', ( #194 ), #199, .T. ) ;
#20 = ORIENTED_EDGE ( 'NONE', *, *, #70, .T. ) ;
#21 = CARTESIAN_POINT ( 'NONE',  ( 0.000000000000000000, 0.000000000000000000, 5.000000000000000000 ) ) ;
#22 = CARTESIAN_POINT ( 'NONE',  ( 0.000000000000000000, 0.000000000000000000, 5.199999999999982414 ) ) ;
#23 = APPROVAL_PERSON_ORGANIZATION ( #5, #161, #168 ) ;
#24 = ADVANCED_FACE ( 'NONE', ( #4 ), #79, .T. ) ;
#25 = AXIS2_PLACEMENT_3D ( 'NONE', #294, #255, #181 ) ;
#26 = APPROVAL_STATUS ( 'not_yet_approved' ) ;
#27 = EDGE_CURVE ( 'NONE', #13, #56, #201, .T. ) ;
#28 = AXIS2_PLACEMENT_3D ( 'NONE', #287, #75, #118 ) ;
#29 = CC_DESIGN_PERSON_AND_ORGANIZATION_ASSIGNMENT ( #299, #86, ( #111 ) ) ;
#30 = DIRECTION ( 'NONE',  ( 1.000000000000000000, 0.000000000000000000, -0.000000000000000000 ) ) ;
#31 = CARTESIAN_POINT ( 'NONE',  ( -8.000000000000000000, 0.000000000000000000, 0.000000000000000000 ) ) ;
#32 = ORIENTED_EDGE ( 'NONE', *, *, #183, .F. ) ;
#33 = PERSON_AND_ORGANIZATION ( #208, #281 ) ;
#34 = CARTESIAN_POINT ( 'NONE',  ( 5.000000000000000888, 6.123233995736767268E-16, 5.199999999999982414 ) ) ;
#35 = DIRECTION ( 'NONE',  ( 1.000000000000000000, 0.000000000000000000, -0.000000000000000000 ) ) ;
#36 = CIRCLE ( 'NONE', #117, 8.000000000000000000 ) ;
#37 = ORIENTED_EDGE ( 'NONE', *, *, #121, .F. ) ;
#38 = FACE_OUTER_BOUND ( 'NONE', #135, .T. ) ;
#39 = ORIENTED_EDGE ( 'NONE', *, *, #115, .T. ) ;
#40 = CARTESIAN_POINT ( 'NONE',  ( 0.000000000000000000, 0.000000000000000000, 5.000000000000000000 ) ) ;
#41 = ORIENTED_EDGE ( 'NONE', *, *, #47, .T. ) ;
#42 = CC_DESIGN_APPROVAL ( #306, ( #111 ) ) ;
#43 = APPROVAL_STATUS ( 'not_yet_approved' ) ;
#44 = DIRECTION ( 'NONE',  ( 0.000000000000000000, 0.000000000000000000, 1.000000000000000000 ) ) ;
#45 = CIRCLE ( 'NONE', #127, 5.200000000000001066 ) ;
#46 = DESIGN_CONTEXT ( 'detailed design', #235, 'design' ) ;
#47 = EDGE_CURVE ( 'NONE', #56, #66, #192, .T. ) ;
#48 = VECTOR ( 'NONE', #112, 1000.000000000000000 ) ;
#49 = FACE_OUTER_BOUND ( 'NONE', #297, .T. ) ;
#50 = EDGE_CURVE ( 'NONE', #128, #244, #45, .T. ) ;
#51 = MANIFOLD_SOLID_BREP ( 'Zaoblit1', #74 ) ;
#52 = DIRECTION ( 'NONE',  ( 1.000000000000000000, 0.000000000000000000, 0.000000000000000000 ) ) ;
#53 = ORIENTED_EDGE ( 'NONE', *, *, #240, .F. ) ;
#54 = DIRECTION ( 'NONE',  ( 0.000000000000000000, 0.000000000000000000, 1.000000000000000000 ) ) ;
#55 = VECTOR ( 'NONE', #78, 1000.000000000000000 ) ;
#56 = VERTEX_POINT ( 'NONE', #99 ) ;
#57 = MECHANICAL_CONTEXT ( 'NONE', #143, 'mechanical' ) ;
#58 = FACE_OUTER_BOUND ( 'NONE', #265, .T. ) ;
#59 = EDGE_CURVE ( 'NONE', #84, #249, #193, .T. ) ;
#60 = COORDINATED_UNIVERSAL_TIME_OFFSET ( 1, 0, .AHEAD. ) ;
#61 = EDGE_LOOP ( 'NONE', ( #83, #81 ) ) ;
#62 = LOCAL_TIME ( 11, 53, 49.00000000000000000, #283 ) ;
#63 = EDGE_LOOP ( 'NONE', ( #151, #160, #133, #261 ) ) ;
#64 = DIRECTION ( 'NONE',  ( 1.000000000000000000, 0.000000000000000000, 0.000000000000000000 ) ) ;
#65 = PERSON_AND_ORGANIZATION ( #208, #281 ) ;
#66 = VERTEX_POINT ( 'NONE', #17 ) ;
#67 = DIRECTION ( 'NONE',  ( 1.000000000000000000, 0.000000000000000000, 0.000000000000000000 ) ) ;
#68 = COORDINATED_UNIVERSAL_TIME_OFFSET ( 1, 0, .AHEAD. ) ;
#69 = CARTESIAN_POINT ( 'NONE',  ( 0.000000000000000000, 0.000000000000000000, 0.000000000000000000 ) ) ;
#70 = EDGE_CURVE ( 'NONE', #66, #12, #119, .T. ) ;
#71 = LOCAL_TIME ( 11, 53, 49.00000000000000000, #68 ) ;
#72 = DIRECTION ( 'NONE',  ( 1.000000000000000000, 0.000000000000000000, 0.000000000000000000 ) ) ;
#73 = EDGE_CURVE ( 'NONE', #12, #244, #3, .T. ) ;
#74 = CLOSED_SHELL ( 'NONE', ( #276, #223, #19, #2, #10, #280, #262, #24, #138 ) ) ;
#75 = DIRECTION ( 'NONE',  ( 0.000000000000000000, 0.000000000000000000, 1.000000000000000000 ) ) ;
#76 =( GEOMETRIC_REPRESENTATION_CONTEXT ( 3 ) GLOBAL_UNCERTAINTY_ASSIGNED_CONTEXT ( ( #207 ) ) GLOBAL_UNIT_ASSIGNED_CONTEXT ( ( #212, #147, #152 ) ) REPRESENTATION_CONTEXT ( 'NONE', 'WORKASPACE' ) );
#77 = DIRECTION ( 'NONE',  ( -1.000000000000000000, 0.000000000000000000, 0.000000000000000000 ) ) ;
#78 = DIRECTION ( 'NONE',  ( -0.000000000000000000, -0.000000000000000000, -1.000000000000000000 ) ) ;
#79 = PLANE ( 'NONE',  #270 ) ;
#80 = AXIS2_PLACEMENT_3D ( 'NONE', #40, #44, #64 ) ;
#81 = ORIENTED_EDGE ( 'NONE', *, *, #50, .T. ) ;
#82 = CALENDAR_DATE ( 2022, 7, 7 ) ;
#83 = ORIENTED_EDGE ( 'NONE', *, *, #256, .T. ) ;
#84 = VERTEX_POINT ( 'NONE', #114 ) ;
#85 = CARTESIAN_POINT ( 'NONE',  ( 5.200000000000001066, 0.000000000000000000, 5.199999999999982414 ) ) ;
#86 = PERSON_AND_ORGANIZATION_ROLE ( 'design_supplier' ) ;
#87 = ORIENTED_EDGE ( 'NONE', *, *, #100, .T. ) ;
#88 = LINE ( 'NONE', #188, #136 ) ;
#89 = SECURITY_CLASSIFICATION_LEVEL ( 'unclassified' ) ;
#90 = CARTESIAN_POINT ( 'NONE',  ( 5.000000000000000888, 6.123233995736767268E-16, 805.0000000000000000 ) ) ;
#91 = DIRECTION ( 'NONE',  ( 0.000000000000000000, -1.000000000000000000, 0.000000000000000000 ) ) ;
#92 = CC_DESIGN_APPROVAL ( #161, ( #217 ) ) ;
#93 = AXIS2_PLACEMENT_3D ( 'NONE', #134, #226, #203 ) ;
#94 = CC_DESIGN_PERSON_AND_ORGANIZATION_ASSIGNMENT ( #95, #144, ( #217 ) ) ;
#95 = PERSON_AND_ORGANIZATION ( #208, #281 ) ;
#96 = AXIS2_PLACEMENT_3D ( 'NONE', #22, #250, #72 ) ;
#97 = DIRECTION ( 'NONE',  ( 0.000000000000000000, 0.000000000000000000, 1.000000000000000000 ) ) ;
#98 = CARTESIAN_POINT ( 'NONE',  ( 0.000000000000000000, 0.000000000000000000, 5.199999999999982414 ) ) ;
#99 = CARTESIAN_POINT ( 'NONE',  ( -5.000000000000000888, 0.000000000000000000, 805.0000000000000000 ) ) ;
#100 = EDGE_CURVE ( 'NONE', #66, #128, #254, .T. ) ;
#101 = ORIENTED_EDGE ( 'NONE', *, *, #73, .F. ) ;
#102 = APPROVAL_PERSON_ORGANIZATION ( #253, #172, #248 ) ;
#103 = DIRECTION ( 'NONE',  ( 1.000000000000000000, 0.000000000000000000, 0.000000000000000000 ) ) ;
#104 = DATE_AND_TIME ( #126, #288 ) ;
#105 = ORIENTED_EDGE ( 'NONE', *, *, #50, .F. ) ;
#106 = EDGE_CURVE ( 'NONE', #16, #269, #88, .T. ) ;
#107 = DIRECTION ( 'NONE',  ( -1.000000000000000000, 0.000000000000000000, 0.000000000000000000 ) ) ;
#108 = PERSON_AND_ORGANIZATION_ROLE ( 'classification_officer' ) ;
#109 = CARTESIAN_POINT ( 'NONE',  ( 0.000000000000000000, 0.000000000000000000, 5.199999999999982414 ) ) ;
#110 = PERSON_AND_ORGANIZATION_ROLE ( 'creator' ) ;
#111 = PRODUCT_DEFINITION_FORMATION_WITH_SPECIFIED_SOURCE ( 'LIBOVOLNÝ', '', #166, .NOT_KNOWN. ) ;
#112 = DIRECTION ( 'NONE',  ( -0.000000000000000000, -0.000000000000000000, -1.000000000000000000 ) ) ;
#113 = DATE_TIME_ROLE ( 'classification_date' ) ;
#114 = CARTESIAN_POINT ( 'NONE',  ( 8.000000000000000000, 9.797174393178825657E-16, 5.000000000000000000 ) ) ;
#115 = EDGE_CURVE ( 'NONE', #16, #84, #36, .T. ) ;
#116 = CARTESIAN_POINT ( 'NONE',  ( -5.200000000000001066, 6.368163355566237368E-16, 5.199999999999982414 ) ) ;
#117 = AXIS2_PLACEMENT_3D ( 'NONE', #165, #205, #224 ) ;
#118 = DIRECTION ( 'NONE',  ( 1.000000000000000000, 0.000000000000000000, 0.000000000000000000 ) ) ;
#119 = CIRCLE ( 'NONE', #96, 5.000000000000000888 ) ;
#120 = DIRECTION ( 'NONE',  ( 0.000000000000000000, 0.000000000000000000, 1.000000000000000000 ) ) ;
#121 = EDGE_CURVE ( 'NONE', #249, #269, #237, .T. ) ;
#122 = DIRECTION ( 'NONE',  ( 0.000000000000000000, 0.000000000000000000, 1.000000000000000000 ) ) ;
#123 = PLANE ( 'NONE',  #245 ) ;
#124 = DIRECTION ( 'NONE',  ( 1.000000000000000000, 0.000000000000000000, 0.000000000000000000 ) ) ;
#125 = CARTESIAN_POINT ( 'NONE',  ( -8.000000000000000000, 0.000000000000000000, 5.000000000000000000 ) ) ;
#126 = CALENDAR_DATE ( 2022, 7, 7 ) ;
#127 = AXIS2_PLACEMENT_3D ( 'NONE', #170, #146, #6 ) ;
#128 = VERTEX_POINT ( 'NONE', #131 ) ;
#129 = ORIENTED_EDGE ( 'NONE', *, *, #106, .T. ) ;
#130 = CC_DESIGN_DATE_AND_TIME_ASSIGNMENT ( #157, #113, ( #196 ) ) ;
#131 = CARTESIAN_POINT ( 'NONE',  ( -5.200000000000001066, 6.368163355566237368E-16, 4.999999999999991118 ) ) ;
#132 = PERSON_AND_ORGANIZATION ( #208, #281 ) ;
#133 = ORIENTED_EDGE ( 'NONE', *, *, #121, .T. ) ;
#134 = CARTESIAN_POINT ( 'NONE',  ( 0.000000000000000000, 0.000000000000000000, 805.0000000000000000 ) ) ;
#135 = EDGE_LOOP ( 'NONE', ( #149, #173, #129, #238 ) ) ;
#136 = VECTOR ( 'NONE', #272, 1000.000000000000000 ) ;
#137 = CARTESIAN_POINT ( 'NONE',  ( 0.000000000000000000, 0.000000000000000000, 0.000000000000000000 ) ) ;
#138 = ADVANCED_FACE ( 'NONE', ( #15 ), #282, .F. ) ;
#139 = DATE_AND_TIME ( #296, #62 ) ;
#140 = LINE ( 'NONE', #90, #295 ) ;
#141 = ADVANCED_BREP_SHAPE_REPRESENTATION ( 'be69', ( #51, #28 ), #76 ) ;
#142 = AXIS2_PLACEMENT_3D ( 'NONE', #69, #279, #230 ) ;
#143 = APPLICATION_CONTEXT ( 'configuration controlled 3d designs of mechanical parts and assemblies' ) ;
#144 = PERSON_AND_ORGANIZATION_ROLE ( 'creator' ) ;
#145 = DIRECTION ( 'NONE',  ( 0.000000000000000000, 0.000000000000000000, 1.000000000000000000 ) ) ;
#146 = DIRECTION ( 'NONE',  ( -0.000000000000000000, -0.000000000000000000, -1.000000000000000000 ) ) ;
#147 =( NAMED_UNIT ( * ) PLANE_ANGLE_UNIT ( ) SI_UNIT ( $, .RADIAN. ) );
#148 = AXIS2_PLACEMENT_3D ( 'NONE', #171, #7, #77 ) ;
#149 = ORIENTED_EDGE ( 'NONE', *, *, #59, .F. ) ;
#150 = CYLINDRICAL_SURFACE ( 'NONE', #148, 5.000000000000000888 ) ;
#151 = ORIENTED_EDGE ( 'NONE', *, *, #211, .F. ) ;
#152 =( NAMED_UNIT ( * ) SI_UNIT ( $, .STERADIAN. ) SOLID_ANGLE_UNIT ( ) );
#153 = ORIENTED_EDGE ( 'NONE', *, *, #100, .F. ) ;
#154 = CC_DESIGN_PERSON_AND_ORGANIZATION_ASSIGNMENT ( #65, #108, ( #196 ) ) ;
#155 = TOROIDAL_SURFACE ( 'NONE', #232, 5.200000000000001066, 0.2000000000000000111 ) ;
#156 = CYLINDRICAL_SURFACE ( 'NONE', #220, 8.000000000000000000 ) ;
#157 = DATE_AND_TIME ( #225, #71 ) ;
#158 = EDGE_LOOP ( 'NONE', ( #153, #273, #268, #105 ) ) ;
#159 = CYLINDRICAL_SURFACE ( 'NONE', #93, 5.000000000000000888 ) ;
#160 = ORIENTED_EDGE ( 'NONE', *, *, #59, .T. ) ;
#161 = APPROVAL ( #169, 'NEURÈENÝ' ) ;
#162 = CARTESIAN_POINT ( 'NONE',  ( 5.200000000000001066, 0.000000000000000000, 4.999999999999991118 ) ) ;
#163 = SHAPE_DEFINITION_REPRESENTATION ( #307, #141 ) ;
#164 = AXIS2_PLACEMENT_3D ( 'NONE', #291, #213, #289 ) ;
#165 = CARTESIAN_POINT ( 'NONE',  ( 0.000000000000000000, 0.000000000000000000, 5.000000000000000000 ) ) ;
#166 = PRODUCT ( 'be69', 'be69', '', ( #57 ) ) ;
#167 = AXIS2_PLACEMENT_3D ( 'NONE', #9, #54, #35 ) ;
#168 = APPROVAL_ROLE ( '' ) ;
#169 = APPROVAL_STATUS ( 'not_yet_approved' ) ;
#170 = CARTESIAN_POINT ( 'NONE',  ( 0.000000000000000000, 0.000000000000000000, 5.000000000000000000 ) ) ;
#171 = CARTESIAN_POINT ( 'NONE',  ( 0.000000000000000000, 0.000000000000000000, 805.0000000000000000 ) ) ;
#172 = APPROVAL ( #43, 'NEURÈENÝ' ) ;
#173 = ORIENTED_EDGE ( 'NONE', *, *, #115, .F. ) ;
#174 = FACE_OUTER_BOUND ( 'NONE', #228, .T. ) ;
#175 = AXIS2_PLACEMENT_3D ( 'NONE', #116, #277, #303 ) ;
#176 = CARTESIAN_POINT ( 'NONE',  ( 0.000000000000000000, 0.000000000000000000, 5.000000000000000000 ) ) ;
#177 = DATE_AND_TIME ( #82, #259 ) ;
#178 = EDGE_LOOP ( 'NONE', ( #292, #87, #239, #101 ) ) ;
#179 = ORIENTED_EDGE ( 'NONE', *, *, #211, .T. ) ;
#180 = CIRCLE ( 'NONE', #11, 5.200000000000001066 ) ;
#181 = DIRECTION ( 'NONE',  ( 1.000000000000000000, 0.000000000000000000, 0.000000000000000000 ) ) ;
#182 = APPROVAL_DATE_TIME ( #139, #306 ) ;
#183 = EDGE_CURVE ( 'NONE', #56, #13, #304, .T. ) ;
#184 = EDGE_LOOP ( 'NONE', ( #301, #263 ) ) ;
#185 = CARTESIAN_POINT ( 'NONE',  ( 8.000000000000000000, 9.797174393178825657E-16, 5.000000000000000000 ) ) ;
#186 = DIRECTION ( 'NONE',  ( -0.000000000000000000, -0.000000000000000000, -1.000000000000000000 ) ) ;
#187 = CC_DESIGN_APPROVAL ( #172, ( #196 ) ) ;
#188 = CARTESIAN_POINT ( 'NONE',  ( -8.000000000000000000, 0.000000000000000000, 5.000000000000000000 ) ) ;
#189 = AXIS2_PLACEMENT_3D ( 'NONE', #137, #274, #67 ) ;
#190 = AXIS2_PLACEMENT_3D ( 'NONE', #98, #145, #52 ) ;
#191 = APPROVAL_ROLE ( '' ) ;
#192 = LINE ( 'NONE', #197, #55 ) ;
#193 = LINE ( 'NONE', #185, #48 ) ;
#194 = FACE_OUTER_BOUND ( 'NONE', #63, .T. ) ;
#195 = PERSON_AND_ORGANIZATION_ROLE ( 'design_owner' ) ;
#196 = SECURITY_CLASSIFICATION ( '', '', #89 ) ;
#197 = CARTESIAN_POINT ( 'NONE',  ( -5.000000000000000888, 0.000000000000000000, 805.0000000000000000 ) ) ;
#198 = FACE_OUTER_BOUND ( 'NONE', #178, .T. ) ;
#199 = CYLINDRICAL_SURFACE ( 'NONE', #164, 8.000000000000000000 ) ;
#200 = DIRECTION ( 'NONE',  ( 1.000000000000000000, 0.000000000000000000, 0.000000000000000000 ) ) ;
#201 = CIRCLE ( 'NONE', #257, 5.000000000000000888 ) ;
#202 = EDGE_LOOP ( 'NONE', ( #251, #215, #267, #284 ) ) ;
#203 = DIRECTION ( 'NONE',  ( -1.000000000000000000, 0.000000000000000000, 0.000000000000000000 ) ) ;
#204 = DIRECTION ( 'NONE',  ( -0.000000000000000000, -0.000000000000000000, -1.000000000000000000 ) ) ;
#205 = DIRECTION ( 'NONE',  ( 0.000000000000000000, 0.000000000000000000, 1.000000000000000000 ) ) ;
#206 = CIRCLE ( 'NONE', #80, 8.000000000000000000 ) ;
#207 = UNCERTAINTY_MEASURE_WITH_UNIT (LENGTH_MEASURE( 1.000000000000000082E-05 ), #212, 'distance_accuracy_value', 'NONE');
#208 = PERSON ( 'NEURÈENÝ', 'NEURÈENÝ', 'NEURÈENÝ', ('NEURÈENÝ'), ('NEURÈENÝ'), ('NEURÈENÝ') ) ;
#209 = CC_DESIGN_PERSON_AND_ORGANIZATION_ASSIGNMENT ( #33, #195, ( #166 ) ) ;
#210 = AXIS2_PLACEMENT_3D ( 'NONE', #109, #302, #200 ) ;
#211 = EDGE_CURVE ( 'NONE', #84, #16, #206, .T. ) ;
#212 =( LENGTH_UNIT ( ) NAMED_UNIT ( * ) SI_UNIT ( .MILLI., .METRE. ) );
#213 = DIRECTION ( 'NONE',  ( -0.000000000000000000, -0.000000000000000000, -1.000000000000000000 ) ) ;
#214 = DIRECTION ( 'NONE',  ( 1.000000000000000000, 0.000000000000000000, -0.000000000000000000 ) ) ;
#215 = ORIENTED_EDGE ( 'NONE', *, *, #231, .T. ) ;
#216 = PLANE ( 'NONE',  #167 ) ;
#217 = PRODUCT_DEFINITION ( 'NEZNÁMÝ', '', #111, #46 ) ;
#218 = CARTESIAN_POINT ( 'NONE',  ( 0.000000000000000000, 0.000000000000000000, 805.0000000000000000 ) ) ;
#219 = CARTESIAN_POINT ( 'NONE',  ( 0.000000000000000000, 0.000000000000000000, 5.199999999999982414 ) ) ;
#220 = AXIS2_PLACEMENT_3D ( 'NONE', #176, #221, #107 ) ;
#221 = DIRECTION ( 'NONE',  ( -0.000000000000000000, -0.000000000000000000, -1.000000000000000000 ) ) ;
#222 = APPROVAL_DATE_TIME ( #271, #172 ) ;
#223 = ADVANCED_FACE ( 'NONE', ( #298 ), #159, .T. ) ;
#224 = DIRECTION ( 'NONE',  ( 1.000000000000000000, 0.000000000000000000, 0.000000000000000000 ) ) ;
#225 = CALENDAR_DATE ( 2022, 7, 7 ) ;
#226 = DIRECTION ( 'NONE',  ( -0.000000000000000000, -0.000000000000000000, -1.000000000000000000 ) ) ;
#227 = AXIS2_PLACEMENT_3D ( 'NONE', #85, #91, #252 ) ;
#228 = EDGE_LOOP ( 'NONE', ( #243, #32, #41, #20 ) ) ;
#229 = CARTESIAN_POINT ( 'NONE',  ( 8.000000000000000000, 9.797174393178825657E-16, 0.000000000000000000 ) ) ;
#230 = DIRECTION ( 'NONE',  ( 1.000000000000000000, 0.000000000000000000, 0.000000000000000000 ) ) ;
#231 = EDGE_CURVE ( 'NONE', #13, #12, #140, .T. ) ;
#232 = AXIS2_PLACEMENT_3D ( 'NONE', #219, #122, #124 ) ;
#233 = CC_DESIGN_PERSON_AND_ORGANIZATION_ASSIGNMENT ( #132, #110, ( #111 ) ) ;
#234 = DATE_TIME_ROLE ( 'creation_date' ) ;
#235 = APPLICATION_CONTEXT ( 'configuration controlled 3d designs of mechanical parts and assemblies' ) ;
#236 = PRODUCT_RELATED_PRODUCT_CATEGORY ( 'detail', '', ( #166 ) ) ;
#237 = CIRCLE ( 'NONE', #142, 8.000000000000000000 ) ;
#238 = ORIENTED_EDGE ( 'NONE', *, *, #240, .T. ) ;
#239 = ORIENTED_EDGE ( 'NONE', *, *, #256, .F. ) ;
#240 = EDGE_CURVE ( 'NONE', #269, #249, #305, .T. ) ;
#241 = FACE_BOUND ( 'NONE', #61, .T. ) ;
#242 = DIRECTION ( 'NONE',  ( 1.000000000000000000, 0.000000000000000000, 0.000000000000000000 ) ) ;
#243 = ORIENTED_EDGE ( 'NONE', *, *, #231, .F. ) ;
#244 = VERTEX_POINT ( 'NONE', #162 ) ;
#245 = AXIS2_PLACEMENT_3D ( 'NONE', #8, #14, #30 ) ;
#246 = CC_DESIGN_SECURITY_CLASSIFICATION ( #196, ( #111 ) ) ;
#247 = CARTESIAN_POINT ( 'NONE',  ( 0.000000000000000000, 0.000000000000000000, 805.0000000000000000 ) ) ;
#248 = APPROVAL_ROLE ( '' ) ;
#249 = VERTEX_POINT ( 'NONE', #229 ) ;
#250 = DIRECTION ( 'NONE',  ( 0.000000000000000000, 0.000000000000000000, 1.000000000000000000 ) ) ;
#251 = ORIENTED_EDGE ( 'NONE', *, *, #27, .F. ) ;
#252 = DIRECTION ( 'NONE',  ( 0.000000000000000000, 0.000000000000000000, -1.000000000000000000 ) ) ;
#253 = PERSON_AND_ORGANIZATION ( #208, #281 ) ;
#254 = CIRCLE ( 'NONE', #175, 0.1999999999999996503 ) ;
#255 = DIRECTION ( 'NONE',  ( 0.000000000000000000, 0.000000000000000000, 1.000000000000000000 ) ) ;
#256 = EDGE_CURVE ( 'NONE', #244, #128, #180, .T. ) ;
#257 = AXIS2_PLACEMENT_3D ( 'NONE', #218, #97, #103 ) ;
#258 = EDGE_CURVE ( 'NONE', #12, #66, #18, .T. ) ;
#259 = LOCAL_TIME ( 11, 53, 49.00000000000000000, #290 ) ;
#260 = PERSON_AND_ORGANIZATION ( #208, #281 ) ;
#261 = ORIENTED_EDGE ( 'NONE', *, *, #106, .F. ) ;
#262 = ADVANCED_FACE ( 'NONE', ( #174 ), #150, .T. ) ;
#263 = ORIENTED_EDGE ( 'NONE', *, *, #27, .T. ) ;
#264 = APPLICATION_PROTOCOL_DEFINITION ( 'international standard', 'config_control_design', 1994, #143 ) ;
#265 = EDGE_LOOP ( 'NONE', ( #39, #179 ) ) ;
#266 = APPROVAL_DATE_TIME ( #177, #161 ) ;
#267 = ORIENTED_EDGE ( 'NONE', *, *, #258, .T. ) ;
#268 = ORIENTED_EDGE ( 'NONE', *, *, #73, .T. ) ;
#269 = VERTEX_POINT ( 'NONE', #31 ) ;
#270 = AXIS2_PLACEMENT_3D ( 'NONE', #247, #120, #214 ) ;
#271 = DATE_AND_TIME ( #275, #278 ) ;
#272 = DIRECTION ( 'NONE',  ( -0.000000000000000000, -0.000000000000000000, -1.000000000000000000 ) ) ;
#273 = ORIENTED_EDGE ( 'NONE', *, *, #258, .F. ) ;
#274 = DIRECTION ( 'NONE',  ( 0.000000000000000000, 0.000000000000000000, 1.000000000000000000 ) ) ;
#275 = CALENDAR_DATE ( 2022, 7, 7 ) ;
#276 = ADVANCED_FACE ( 'NONE', ( #198 ), #155, .F. ) ;
#277 = DIRECTION ( 'NONE',  ( 1.224646799147353207E-16, 1.000000000000000000, -0.000000000000000000 ) ) ;
#278 = LOCAL_TIME ( 11, 53, 49.00000000000000000, #293 ) ;
#279 = DIRECTION ( 'NONE',  ( 0.000000000000000000, 0.000000000000000000, 1.000000000000000000 ) ) ;
#280 = ADVANCED_FACE ( 'NONE', ( #49 ), #216, .F. ) ;
#281 = ORGANIZATION ( 'NEURÈENÝ', 'NEURÈENÝ', '' ) ;
#282 = TOROIDAL_SURFACE ( 'NONE', #210, 5.200000000000001066, 0.2000000000000000111 ) ;
#283 = COORDINATED_UNIVERSAL_TIME_OFFSET ( 1, 0, .AHEAD. ) ;
#284 = ORIENTED_EDGE ( 'NONE', *, *, #47, .F. ) ;
#285 = APPLICATION_PROTOCOL_DEFINITION ( 'international standard', 'config_control_design', 1994, #235 ) ;
#286 = CARTESIAN_POINT ( 'NONE',  ( 5.000000000000000888, 6.123233995736767268E-16, 805.0000000000000000 ) ) ;
#287 = CARTESIAN_POINT ( 'NONE',  ( 0.000000000000000000, 0.000000000000000000, 0.000000000000000000 ) ) ;
#288 = LOCAL_TIME ( 11, 53, 49.00000000000000000, #60 ) ;
#289 = DIRECTION ( 'NONE',  ( -1.000000000000000000, 0.000000000000000000, 0.000000000000000000 ) ) ;
#290 = COORDINATED_UNIVERSAL_TIME_OFFSET ( 1, 0, .AHEAD. ) ;
#291 = CARTESIAN_POINT ( 'NONE',  ( 0.000000000000000000, 0.000000000000000000, 5.000000000000000000 ) ) ;
#292 = ORIENTED_EDGE ( 'NONE', *, *, #70, .F. ) ;
#293 = COORDINATED_UNIVERSAL_TIME_OFFSET ( 1, 0, .AHEAD. ) ;
#294 = CARTESIAN_POINT ( 'NONE',  ( 0.000000000000000000, 0.000000000000000000, 805.0000000000000000 ) ) ;
#295 = VECTOR ( 'NONE', #204, 1000.000000000000000 ) ;
#296 = CALENDAR_DATE ( 2022, 7, 7 ) ;
#297 = EDGE_LOOP ( 'NONE', ( #53, #37 ) ) ;
#298 = FACE_OUTER_BOUND ( 'NONE', #202, .T. ) ;
#299 = PERSON_AND_ORGANIZATION ( #208, #281 ) ;
#300 = CC_DESIGN_DATE_AND_TIME_ASSIGNMENT ( #104, #234, ( #217 ) ) ;
#301 = ORIENTED_EDGE ( 'NONE', *, *, #183, .T. ) ;
#302 = DIRECTION ( 'NONE',  ( 0.000000000000000000, 0.000000000000000000, 1.000000000000000000 ) ) ;
#303 = DIRECTION ( 'NONE',  ( -1.000000000000000000, 1.224646799147353454E-16, 0.000000000000000000 ) ) ;
#304 = CIRCLE ( 'NONE', #25, 5.000000000000000888 ) ;
#305 = CIRCLE ( 'NONE', #189, 8.000000000000000000 ) ;
#306 = APPROVAL ( #26, 'NEURÈENÝ' ) ;
#307 = PRODUCT_DEFINITION_SHAPE ( 'NONE', 'NONE',  #217 ) ;
ENDSEC;
END-ISO-10303-21;
