ISO-10303-21;
HEADER;
FILE_DESCRIPTION (( 'STEP AP203' ),
    '1' );
FILE_NAME ('12c5.STEP',
    '2022-07-07T09:40:44',
    ( '' ),
    ( '' ),
    'SwSTEP 2.0',
    'SolidWorks 2019',
    '' );
FILE_SCHEMA (( 'CONFIG_CONTROL_DESIGN' ));
ENDSEC;

DATA;
#1 = EDGE_CURVE ( 'NONE', #178, #100, #272, .T. ) ;
#2 = PERSON_AND_ORGANIZATION ( #220, #217 ) ;
#3 = ORIENTED_EDGE ( 'NONE', *, *, #284, .T. ) ;
#4 = DIRECTION ( 'NONE',  ( 1.000000000000000000, 0.000000000000000000, 0.000000000000000000 ) ) ;
#5 = APPROVAL_STATUS ( 'not_yet_approved' ) ;
#6 = EDGE_CURVE ( 'NONE', #100, #163, #36, .T. ) ;
#7 = DIRECTION ( 'NONE',  ( 1.000000000000000000, 0.000000000000000000, 0.000000000000000000 ) ) ;
#8 = FACE_OUTER_BOUND ( 'NONE', #213, .T. ) ;
#9 = EDGE_CURVE ( 'NONE', #131, #84, #62, .T. ) ;
#10 = LINE ( 'NONE', #109, #251 ) ;
#11 = ORIENTED_EDGE ( 'NONE', *, *, #87, .F. ) ;
#12 = DIRECTION ( 'NONE',  ( -1.000000000000000000, 0.000000000000000000, 0.000000000000000000 ) ) ;
#13 = AXIS2_PLACEMENT_3D ( 'NONE', #15, #139, #256 ) ;
#14 = ADVANCED_FACE ( 'NONE', ( #225 ), #255, .T. ) ;
#15 = CARTESIAN_POINT ( 'NONE',  ( 0.000000000000000000, 0.000000000000000000, 7.199999999999984190 ) ) ;
#16 = FACE_OUTER_BOUND ( 'NONE', #274, .T. ) ;
#17 = DIRECTION ( 'NONE',  ( 1.000000000000000000, 0.000000000000000000, -0.000000000000000000 ) ) ;
#18 = AXIS2_PLACEMENT_3D ( 'NONE', #249, #129, #12 ) ;
#19 = FACE_OUTER_BOUND ( 'NONE', #81, .T. ) ;
#20 = EDGE_CURVE ( 'NONE', #178, #126, #10, .T. ) ;
#21 = CARTESIAN_POINT ( 'NONE',  ( 0.000000000000000000, 0.000000000000000000, 7.199999999999984190 ) ) ;
#22 = ORIENTED_EDGE ( 'NONE', *, *, #6, .T. ) ;
#23 = CALENDAR_DATE ( 2022, 7, 7 ) ;
#24 = PERSON_AND_ORGANIZATION ( #220, #217 ) ;
#25 = SECURITY_CLASSIFICATION_LEVEL ( 'unclassified' ) ;
#26 = ORIENTED_EDGE ( 'NONE', *, *, #248, .F. ) ;
#27 = PRODUCT_DEFINITION_FORMATION_WITH_SPECIFIED_SOURCE ( 'LIBOVOLNÝ', '', #203, .NOT_KNOWN. ) ;
#28 = PERSON_AND_ORGANIZATION_ROLE ( 'creator' ) ;
#29 = EDGE_CURVE ( 'NONE', #126, #163, #300, .T. ) ;
#30 = CARTESIAN_POINT ( 'NONE',  ( 0.000000000000000000, 0.000000000000000000, 0.000000000000000000 ) ) ;
#31 = CYLINDRICAL_SURFACE ( 'NONE', #192, 7.000000000000000888 ) ;
#32 = AXIS2_PLACEMENT_3D ( 'NONE', #156, #231, #185 ) ;
#33 = DIRECTION ( 'NONE',  ( -0.000000000000000000, -0.000000000000000000, -1.000000000000000000 ) ) ;
#34 = CARTESIAN_POINT ( 'NONE',  ( 0.000000000000000000, 0.000000000000000000, 322.0000000000000000 ) ) ;
#35 = SHAPE_DEFINITION_REPRESENTATION ( #215, #105 ) ;
#36 = LINE ( 'NONE', #153, #267 ) ;
#37 = DIRECTION ( 'NONE',  ( 0.000000000000000000, 0.000000000000000000, 1.000000000000000000 ) ) ;
#38 = CIRCLE ( 'NONE', #210, 0.1999999999999996503 ) ;
#39 = LINE ( 'NONE', #133, #204 ) ;
#40 = LINE ( 'NONE', #110, #279 ) ;
#41 = CC_DESIGN_DATE_AND_TIME_ASSIGNMENT ( #119, #122, ( #305 ) ) ;
#42 = CARTESIAN_POINT ( 'NONE',  ( -7.000000000000000888, 0.000000000000000000, 7.199999999999984190 ) ) ;
#43 = DIRECTION ( 'NONE',  ( 1.000000000000000000, 0.000000000000000000, 0.000000000000000000 ) ) ;
#44 = DATE_AND_TIME ( #141, #262 ) ;
#45 = APPLICATION_CONTEXT ( 'configuration controlled 3d designs of mechanical parts and assemblies' ) ;
#46 = PERSON_AND_ORGANIZATION_ROLE ( 'classification_officer' ) ;
#47 = ORIENTED_EDGE ( 'NONE', *, *, #148, .F. ) ;
#48 = TOROIDAL_SURFACE ( 'NONE', #283, 7.200000000000001066, 0.2000000000000000111 ) ;
#49 =( NAMED_UNIT ( * ) SI_UNIT ( $, .STERADIAN. ) SOLID_ANGLE_UNIT ( ) );
#50 = ORIENTED_EDGE ( 'NONE', *, *, #87, .T. ) ;
#51 = DIRECTION ( 'NONE',  ( 1.000000000000000000, 0.000000000000000000, 0.000000000000000000 ) ) ;
#52 = EDGE_LOOP ( 'NONE', ( #224, #47, #196, #3 ) ) ;
#53 = AXIS2_PLACEMENT_3D ( 'NONE', #277, #291, #77 ) ;
#54 = ORIENTED_EDGE ( 'NONE', *, *, #6, .F. ) ;
#55 = ORIENTED_EDGE ( 'NONE', *, *, #284, .F. ) ;
#56 = CIRCLE ( 'NONE', #187, 7.000000000000000888 ) ;
#57 = ORIENTED_EDGE ( 'NONE', *, *, #20, .F. ) ;
#58 = EDGE_LOOP ( 'NONE', ( #295, #26, #241, #165 ) ) ;
#59 = APPROVAL ( #230, 'NEURÈENÝ' ) ;
#60 = ORIENTED_EDGE ( 'NONE', *, *, #125, .F. ) ;
#61 = PLANE ( 'NONE',  #287 ) ;
#62 = CIRCLE ( 'NONE', #128, 7.200000000000001066 ) ;
#63 = DIRECTION ( 'NONE',  ( 1.000000000000000000, 0.000000000000000000, 0.000000000000000000 ) ) ;
#64 = ADVANCED_FACE ( 'NONE', ( #104 ), #31, .T. ) ;
#65 = CARTESIAN_POINT ( 'NONE',  ( 7.200000000000001066, 0.000000000000000000, 6.999999999999992006 ) ) ;
#66 = DIRECTION ( 'NONE',  ( 0.000000000000000000, 0.000000000000000000, 1.000000000000000000 ) ) ;
#67 = CIRCLE ( 'NONE', #181, 7.000000000000000888 ) ;
#68 = PERSON_AND_ORGANIZATION_ROLE ( 'design_supplier' ) ;
#69 = APPROVAL ( #5, 'NEURÈENÝ' ) ;
#70 = COORDINATED_UNIVERSAL_TIME_OFFSET ( 1, 0, .AHEAD. ) ;
#71 = ORIENTED_EDGE ( 'NONE', *, *, #1, .F. ) ;
#72 = AXIS2_PLACEMENT_3D ( 'NONE', #288, #186, #51 ) ;
#73 = EDGE_CURVE ( 'NONE', #106, #131, #114, .T. ) ;
#74 = EDGE_LOOP ( 'NONE', ( #146, #223 ) ) ;
#75 = AXIS2_PLACEMENT_3D ( 'NONE', #219, #194, #276 ) ;
#76 = ADVANCED_FACE ( 'NONE', ( #273 ), #176, .T. ) ;
#77 = DIRECTION ( 'NONE',  ( -1.000000000000000000, 1.224646799147358384E-16, 0.000000000000000000 ) ) ;
#78 = ORIENTED_EDGE ( 'NONE', *, *, #29, .T. ) ;
#79 = ORIENTED_EDGE ( 'NONE', *, *, #143, .F. ) ;
#80 = APPROVAL_PERSON_ORGANIZATION ( #307, #206, #120 ) ;
#81 = EDGE_LOOP ( 'NONE', ( #250, #121 ) ) ;
#82 = UNCERTAINTY_MEASURE_WITH_UNIT (LENGTH_MEASURE( 1.000000000000000082E-05 ), #95, 'distance_accuracy_value', 'NONE');
#83 = ADVANCED_FACE ( 'NONE', ( #8 ), #142, .F. ) ;
#84 = VERTEX_POINT ( 'NONE', #65 ) ;
#85 = DIRECTION ( 'NONE',  ( 1.000000000000000000, 0.000000000000000000, 0.000000000000000000 ) ) ;
#86 = CARTESIAN_POINT ( 'NONE',  ( -11.00000000000000000, 0.000000000000000000, 0.000000000000000000 ) ) ;
#87 = EDGE_CURVE ( 'NONE', #269, #293, #67, .T. ) ;
#88 = CARTESIAN_POINT ( 'NONE',  ( 0.000000000000000000, 0.000000000000000000, 322.0000000000000000 ) ) ;
#89 = FACE_OUTER_BOUND ( 'NONE', #52, .T. ) ;
#90 = CARTESIAN_POINT ( 'NONE',  ( 0.000000000000000000, 0.000000000000000000, 7.199999999999984190 ) ) ;
#91 = APPROVAL_PERSON_ORGANIZATION ( #218, #69, #94 ) ;
#92 = DIRECTION ( 'NONE',  ( 1.000000000000000000, 0.000000000000000000, -0.000000000000000000 ) ) ;
#93 = EDGE_LOOP ( 'NONE', ( #54, #71, #216, #78 ) ) ;
#94 = APPROVAL_ROLE ( '' ) ;
#95 =( LENGTH_UNIT ( ) NAMED_UNIT ( * ) SI_UNIT ( .MILLI., .METRE. ) );
#96 = EDGE_CURVE ( 'NONE', #101, #84, #38, .T. ) ;
#97 = AXIS2_PLACEMENT_3D ( 'NONE', #207, #134, #115 ) ;
#98 = MECHANICAL_CONTEXT ( 'NONE', #45, 'mechanical' ) ;
#99 = APPROVAL_DATE_TIME ( #44, #206 ) ;
#100 = VERTEX_POINT ( 'NONE', #116 ) ;
#101 = VERTEX_POINT ( 'NONE', #235 ) ;
#102 = AXIS2_PLACEMENT_3D ( 'NONE', #201, #202, #85 ) ;
#103 = CC_DESIGN_APPROVAL ( #59, ( #305 ) ) ;
#104 = FACE_OUTER_BOUND ( 'NONE', #244, .T. ) ;
#105 = ADVANCED_BREP_SHAPE_REPRESENTATION ( '12c5', ( #111, #123 ), #177 ) ;
#106 = VERTEX_POINT ( 'NONE', #42 ) ;
#107 = EDGE_CURVE ( 'NONE', #100, #178, #222, .T. ) ;
#108 = AXIS2_PLACEMENT_3D ( 'NONE', #88, #304, #303 ) ;
#109 = CARTESIAN_POINT ( 'NONE',  ( -11.00000000000000000, 0.000000000000000000, 7.000000000000000000 ) ) ;
#110 = CARTESIAN_POINT ( 'NONE',  ( -7.000000000000000888, 0.000000000000000000, 322.0000000000000000 ) ) ;
#111 = MANIFOLD_SOLID_BREP ( 'Zaoblit1', #166 ) ;
#112 = PLANE ( 'NONE',  #147 ) ;
#113 = DIRECTION ( 'NONE',  ( -0.000000000000000000, -0.000000000000000000, -1.000000000000000000 ) ) ;
#114 = CIRCLE ( 'NONE', #53, 0.1999999999999996503 ) ;
#115 = DIRECTION ( 'NONE',  ( -1.000000000000000000, 0.000000000000000000, 0.000000000000000000 ) ) ;
#116 = CARTESIAN_POINT ( 'NONE',  ( 11.00000000000000000, 1.347111479062088405E-15, 7.000000000000000000 ) ) ;
#117 = CC_DESIGN_PERSON_AND_ORGANIZATION_ASSIGNMENT ( #24, #46, ( #305 ) ) ;
#118 = CARTESIAN_POINT ( 'NONE',  ( -7.000000000000000888, 0.000000000000000000, 322.0000000000000000 ) ) ;
#119 = DATE_AND_TIME ( #212, #155 ) ;
#120 = APPROVAL_ROLE ( '' ) ;
#121 = ORIENTED_EDGE ( 'NONE', *, *, #107, .T. ) ;
#122 = DATE_TIME_ROLE ( 'classification_date' ) ;
#123 = AXIS2_PLACEMENT_3D ( 'NONE', #214, #140, #4 ) ;
#124 = DATE_TIME_ROLE ( 'creation_date' ) ;
#125 = EDGE_CURVE ( 'NONE', #293, #106, #40, .T. ) ;
#126 = VERTEX_POINT ( 'NONE', #86 ) ;
#127 = DIRECTION ( 'NONE',  ( 0.000000000000000000, 0.000000000000000000, 1.000000000000000000 ) ) ;
#128 = AXIS2_PLACEMENT_3D ( 'NONE', #173, #275, #7 ) ;
#129 = DIRECTION ( 'NONE',  ( -0.000000000000000000, -0.000000000000000000, -1.000000000000000000 ) ) ;
#130 = ORIENTED_EDGE ( 'NONE', *, *, #243, .F. ) ;
#131 = VERTEX_POINT ( 'NONE', #137 ) ;
#132 = CC_DESIGN_APPROVAL ( #69, ( #27 ) ) ;
#133 = CARTESIAN_POINT ( 'NONE',  ( 7.000000000000000888, 8.572527594031474176E-16, 322.0000000000000000 ) ) ;
#134 = DIRECTION ( 'NONE',  ( -0.000000000000000000, -0.000000000000000000, -1.000000000000000000 ) ) ;
#135 = DATE_AND_TIME ( #197, #182 ) ;
#136 = CARTESIAN_POINT ( 'NONE',  ( -11.00000000000000000, 0.000000000000000000, 7.000000000000000000 ) ) ;
#137 = CARTESIAN_POINT ( 'NONE',  ( -7.200000000000001066, 8.817456953860944275E-16, 6.999999999999992006 ) ) ;
#138 = CIRCLE ( 'NONE', #257, 7.200000000000001066 ) ;
#139 = DIRECTION ( 'NONE',  ( 0.000000000000000000, 0.000000000000000000, 1.000000000000000000 ) ) ;
#140 = DIRECTION ( 'NONE',  ( 0.000000000000000000, 0.000000000000000000, 1.000000000000000000 ) ) ;
#141 = CALENDAR_DATE ( 2022, 7, 7 ) ;
#142 = TOROIDAL_SURFACE ( 'NONE', #13, 7.200000000000001066, 0.2000000000000000111 ) ;
#143 = EDGE_CURVE ( 'NONE', #84, #131, #138, .T. ) ;
#144 =( NAMED_UNIT ( * ) PLANE_ANGLE_UNIT ( ) SI_UNIT ( $, .RADIAN. ) );
#145 = ORIENTED_EDGE ( 'NONE', *, *, #148, .T. ) ;
#146 = ORIENTED_EDGE ( 'NONE', *, *, #143, .T. ) ;
#147 = AXIS2_PLACEMENT_3D ( 'NONE', #208, #261, #92 ) ;
#148 = EDGE_CURVE ( 'NONE', #293, #269, #193, .T. ) ;
#149 = ORIENTED_EDGE ( 'NONE', *, *, #232, .T. ) ;
#150 = EDGE_LOOP ( 'NONE', ( #145, #50 ) ) ;
#151 = ORIENTED_EDGE ( 'NONE', *, *, #107, .F. ) ;
#152 = APPLICATION_CONTEXT ( 'configuration controlled 3d designs of mechanical parts and assemblies' ) ;
#153 = CARTESIAN_POINT ( 'NONE',  ( 11.00000000000000000, 1.347111479062088405E-15, 7.000000000000000000 ) ) ;
#154 = DIRECTION ( 'NONE',  ( 1.000000000000000000, 0.000000000000000000, 0.000000000000000000 ) ) ;
#155 = LOCAL_TIME ( 11, 40, 44.00000000000000000, #239 ) ;
#156 = CARTESIAN_POINT ( 'NONE',  ( 0.000000000000000000, 0.000000000000000000, 322.0000000000000000 ) ) ;
#157 = FACE_BOUND ( 'NONE', #74, .T. ) ;
#158 = CARTESIAN_POINT ( 'NONE',  ( 7.000000000000000888, 8.572527594031474176E-16, 322.0000000000000000 ) ) ;
#159 = CARTESIAN_POINT ( 'NONE',  ( 0.000000000000000000, 0.000000000000000000, 7.000000000000000000 ) ) ;
#160 = CC_DESIGN_APPROVAL ( #206, ( #226 ) ) ;
#161 = COORDINATED_UNIVERSAL_TIME_OFFSET ( 1, 0, .AHEAD. ) ;
#162 = APPROVAL_DATE_TIME ( #240, #69 ) ;
#163 = VERTEX_POINT ( 'NONE', #229 ) ;
#164 = PRODUCT_RELATED_PRODUCT_CATEGORY ( 'detail', '', ( #203 ) ) ;
#165 = ORIENTED_EDGE ( 'NONE', *, *, #9, .F. ) ;
#166 = CLOSED_SHELL ( 'NONE', ( #83, #64, #254, #14, #170, #270, #188, #76, #265 ) ) ;
#167 = CALENDAR_DATE ( 2022, 7, 7 ) ;
#168 = APPROVAL_STATUS ( 'not_yet_approved' ) ;
#169 = APPROVAL_DATE_TIME ( #135, #59 ) ;
#170 = ADVANCED_FACE ( 'NONE', ( #157, #19 ), #61, .T. ) ;
#171 = ORIENTED_EDGE ( 'NONE', *, *, #73, .T. ) ;
#172 = AXIS2_PLACEMENT_3D ( 'NONE', #34, #127, #221 ) ;
#173 = CARTESIAN_POINT ( 'NONE',  ( 0.000000000000000000, 0.000000000000000000, 7.000000000000000000 ) ) ;
#174 = ORIENTED_EDGE ( 'NONE', *, *, #96, .F. ) ;
#175 = CC_DESIGN_DATE_AND_TIME_ASSIGNMENT ( #264, #124, ( #226 ) ) ;
#176 = PLANE ( 'NONE',  #172 ) ;
#177 =( GEOMETRIC_REPRESENTATION_CONTEXT ( 3 ) GLOBAL_UNCERTAINTY_ASSIGNED_CONTEXT ( ( #82 ) ) GLOBAL_UNIT_ASSIGNED_CONTEXT ( ( #95, #144, #49 ) ) REPRESENTATION_CONTEXT ( 'NONE', 'WORKASPACE' ) );
#178 = VERTEX_POINT ( 'NONE', #136 ) ;
#179 = DIRECTION ( 'NONE',  ( 1.000000000000000000, 0.000000000000000000, 0.000000000000000000 ) ) ;
#180 = DIRECTION ( 'NONE',  ( 1.000000000000000000, 0.000000000000000000, 0.000000000000000000 ) ) ;
#181 = AXIS2_PLACEMENT_3D ( 'NONE', #278, #66, #154 ) ;
#182 = LOCAL_TIME ( 11, 40, 44.00000000000000000, #289 ) ;
#183 = CARTESIAN_POINT ( 'NONE',  ( 0.000000000000000000, 0.000000000000000000, 7.000000000000000000 ) ) ;
#184 = DIRECTION ( 'NONE',  ( 0.000000000000000000, 0.000000000000000000, 1.000000000000000000 ) ) ;
#185 = DIRECTION ( 'NONE',  ( -1.000000000000000000, 0.000000000000000000, 0.000000000000000000 ) ) ;
#186 = DIRECTION ( 'NONE',  ( 0.000000000000000000, 0.000000000000000000, 1.000000000000000000 ) ) ;
#187 = AXIS2_PLACEMENT_3D ( 'NONE', #21, #184, #260 ) ;
#188 = ADVANCED_FACE ( 'NONE', ( #89 ), #302, .T. ) ;
#189 = PERSON_AND_ORGANIZATION ( #220, #217 ) ;
#190 = ORIENTED_EDGE ( 'NONE', *, *, #248, .T. ) ;
#191 = ORIENTED_EDGE ( 'NONE', *, *, #243, .T. ) ;
#192 = AXIS2_PLACEMENT_3D ( 'NONE', #195, #247, #294 ) ;
#193 = CIRCLE ( 'NONE', #108, 7.000000000000000888 ) ;
#194 = DIRECTION ( 'NONE',  ( 0.000000000000000000, 0.000000000000000000, 1.000000000000000000 ) ) ;
#195 = CARTESIAN_POINT ( 'NONE',  ( 0.000000000000000000, 0.000000000000000000, 322.0000000000000000 ) ) ;
#196 = ORIENTED_EDGE ( 'NONE', *, *, #125, .T. ) ;
#197 = CALENDAR_DATE ( 2022, 7, 7 ) ;
#198 = LOCAL_TIME ( 11, 40, 44.00000000000000000, #161 ) ;
#199 = DIRECTION ( 'NONE',  ( -0.000000000000000000, -0.000000000000000000, -1.000000000000000000 ) ) ;
#200 = CC_DESIGN_PERSON_AND_ORGANIZATION_ASSIGNMENT ( #245, #209, ( #203 ) ) ;
#201 = CARTESIAN_POINT ( 'NONE',  ( 0.000000000000000000, 0.000000000000000000, 0.000000000000000000 ) ) ;
#202 = DIRECTION ( 'NONE',  ( 0.000000000000000000, 0.000000000000000000, 1.000000000000000000 ) ) ;
#203 = PRODUCT ( '12c5', '12c5', '', ( #98 ) ) ;
#204 = VECTOR ( 'NONE', #285, 1000.000000000000000 ) ;
#205 = DIRECTION ( 'NONE',  ( 0.000000000000000000, 0.000000000000000000, -1.000000000000000000 ) ) ;
#206 = APPROVAL ( #168, 'NEURÈENÝ' ) ;
#207 = CARTESIAN_POINT ( 'NONE',  ( 0.000000000000000000, 0.000000000000000000, 7.000000000000000000 ) ) ;
#208 = CARTESIAN_POINT ( 'NONE',  ( 0.000000000000000000, 0.000000000000000000, 0.000000000000000000 ) ) ;
#209 = PERSON_AND_ORGANIZATION_ROLE ( 'design_owner' ) ;
#210 = AXIS2_PLACEMENT_3D ( 'NONE', #299, #258, #205 ) ;
#211 = PERSON_AND_ORGANIZATION ( #220, #217 ) ;
#212 = CALENDAR_DATE ( 2022, 7, 7 ) ;
#213 = EDGE_LOOP ( 'NONE', ( #55, #171, #79, #174 ) ) ;
#214 = CARTESIAN_POINT ( 'NONE',  ( 0.000000000000000000, 0.000000000000000000, 0.000000000000000000 ) ) ;
#215 = PRODUCT_DEFINITION_SHAPE ( 'NONE', 'NONE',  #226 ) ;
#216 = ORIENTED_EDGE ( 'NONE', *, *, #20, .T. ) ;
#217 = ORGANIZATION ( 'NEURÈENÝ', 'NEURÈENÝ', '' ) ;
#218 = PERSON_AND_ORGANIZATION ( #220, #217 ) ;
#219 = CARTESIAN_POINT ( 'NONE',  ( 0.000000000000000000, 0.000000000000000000, 7.000000000000000000 ) ) ;
#220 = PERSON ( 'NEURÈENÝ', 'NEURÈENÝ', 'NEURÈENÝ', ('NEURÈENÝ'), ('NEURÈENÝ'), ('NEURÈENÝ') ) ;
#221 = DIRECTION ( 'NONE',  ( 1.000000000000000000, 0.000000000000000000, -0.000000000000000000 ) ) ;
#222 = CIRCLE ( 'NONE', #296, 11.00000000000000000 ) ;
#223 = ORIENTED_EDGE ( 'NONE', *, *, #9, .T. ) ;
#224 = ORIENTED_EDGE ( 'NONE', *, *, #232, .F. ) ;
#225 = FACE_OUTER_BOUND ( 'NONE', #93, .T. ) ;
#226 = PRODUCT_DEFINITION ( 'NEZNÁMÝ', '', #27, #227 ) ;
#227 = DESIGN_CONTEXT ( 'detailed design', #152, 'design' ) ;
#228 = LOCAL_TIME ( 11, 40, 44.00000000000000000, #268 ) ;
#229 = CARTESIAN_POINT ( 'NONE',  ( 11.00000000000000000, 1.347111479062088405E-15, 0.000000000000000000 ) ) ;
#230 = APPROVAL_STATUS ( 'not_yet_approved' ) ;
#231 = DIRECTION ( 'NONE',  ( -0.000000000000000000, -0.000000000000000000, -1.000000000000000000 ) ) ;
#232 = EDGE_CURVE ( 'NONE', #269, #101, #39, .T. ) ;
#233 = CARTESIAN_POINT ( 'NONE',  ( 0.000000000000000000, 0.000000000000000000, 7.000000000000000000 ) ) ;
#234 = DIRECTION ( 'NONE',  ( -0.000000000000000000, -0.000000000000000000, -1.000000000000000000 ) ) ;
#235 = CARTESIAN_POINT ( 'NONE',  ( 7.000000000000000888, 8.572527594031474176E-16, 7.199999999999984190 ) ) ;
#236 = CC_DESIGN_PERSON_AND_ORGANIZATION_ASSIGNMENT ( #2, #28, ( #226 ) ) ;
#237 = APPLICATION_PROTOCOL_DEFINITION ( 'international standard', 'config_control_design', 1994, #152 ) ;
#238 = CIRCLE ( 'NONE', #102, 11.00000000000000000 ) ;
#239 = COORDINATED_UNIVERSAL_TIME_OFFSET ( 1, 0, .AHEAD. ) ;
#240 = DATE_AND_TIME ( #23, #198 ) ;
#241 = ORIENTED_EDGE ( 'NONE', *, *, #96, .T. ) ;
#242 = PERSON_AND_ORGANIZATION_ROLE ( 'creator' ) ;
#243 = EDGE_CURVE ( 'NONE', #163, #126, #238, .T. ) ;
#244 = EDGE_LOOP ( 'NONE', ( #11, #149, #190, #60 ) ) ;
#245 = PERSON_AND_ORGANIZATION ( #220, #217 ) ;
#246 = AXIS2_PLACEMENT_3D ( 'NONE', #30, #297, #179 ) ;
#247 = DIRECTION ( 'NONE',  ( -0.000000000000000000, -0.000000000000000000, -1.000000000000000000 ) ) ;
#248 = EDGE_CURVE ( 'NONE', #101, #106, #56, .T. ) ;
#249 = CARTESIAN_POINT ( 'NONE',  ( 0.000000000000000000, 0.000000000000000000, 7.000000000000000000 ) ) ;
#250 = ORIENTED_EDGE ( 'NONE', *, *, #1, .T. ) ;
#251 = VECTOR ( 'NONE', #199, 1000.000000000000000 ) ;
#252 = ORIENTED_EDGE ( 'NONE', *, *, #29, .F. ) ;
#253 = APPROVAL_ROLE ( '' ) ;
#254 = ADVANCED_FACE ( 'NONE', ( #282 ), #281, .T. ) ;
#255 = CYLINDRICAL_SURFACE ( 'NONE', #18, 11.00000000000000000 ) ;
#256 = DIRECTION ( 'NONE',  ( 1.000000000000000000, 0.000000000000000000, 0.000000000000000000 ) ) ;
#257 = AXIS2_PLACEMENT_3D ( 'NONE', #183, #234, #43 ) ;
#258 = DIRECTION ( 'NONE',  ( 0.000000000000000000, -1.000000000000000000, 0.000000000000000000 ) ) ;
#259 = CC_DESIGN_PERSON_AND_ORGANIZATION_ASSIGNMENT ( #189, #242, ( #27 ) ) ;
#260 = DIRECTION ( 'NONE',  ( 1.000000000000000000, 0.000000000000000000, 0.000000000000000000 ) ) ;
#261 = DIRECTION ( 'NONE',  ( 0.000000000000000000, 0.000000000000000000, 1.000000000000000000 ) ) ;
#262 = LOCAL_TIME ( 11, 40, 44.00000000000000000, #70 ) ;
#263 = DIRECTION ( 'NONE',  ( 0.000000000000000000, 0.000000000000000000, 1.000000000000000000 ) ) ;
#264 = DATE_AND_TIME ( #167, #228 ) ;
#265 = ADVANCED_FACE ( 'NONE', ( #280 ), #48, .F. ) ;
#266 = PERSON_AND_ORGANIZATION ( #220, #217 ) ;
#267 = VECTOR ( 'NONE', #33, 1000.000000000000000 ) ;
#268 = COORDINATED_UNIVERSAL_TIME_OFFSET ( 1, 0, .AHEAD. ) ;
#269 = VERTEX_POINT ( 'NONE', #158 ) ;
#270 = ADVANCED_FACE ( 'NONE', ( #16 ), #112, .F. ) ;
#271 = CC_DESIGN_PERSON_AND_ORGANIZATION_ASSIGNMENT ( #266, #68, ( #27 ) ) ;
#272 = CIRCLE ( 'NONE', #75, 11.00000000000000000 ) ;
#273 = FACE_OUTER_BOUND ( 'NONE', #150, .T. ) ;
#274 = EDGE_LOOP ( 'NONE', ( #252, #130 ) ) ;
#275 = DIRECTION ( 'NONE',  ( -0.000000000000000000, -0.000000000000000000, -1.000000000000000000 ) ) ;
#276 = DIRECTION ( 'NONE',  ( 1.000000000000000000, 0.000000000000000000, 0.000000000000000000 ) ) ;
#277 = CARTESIAN_POINT ( 'NONE',  ( -7.200000000000001066, 8.817456953860944275E-16, 7.199999999999984190 ) ) ;
#278 = CARTESIAN_POINT ( 'NONE',  ( 0.000000000000000000, 0.000000000000000000, 322.0000000000000000 ) ) ;
#279 = VECTOR ( 'NONE', #113, 1000.000000000000000 ) ;
#280 = FACE_OUTER_BOUND ( 'NONE', #58, .T. ) ;
#281 = CYLINDRICAL_SURFACE ( 'NONE', #97, 11.00000000000000000 ) ;
#282 = FACE_OUTER_BOUND ( 'NONE', #290, .T. ) ;
#283 = AXIS2_PLACEMENT_3D ( 'NONE', #90, #298, #180 ) ;
#284 = EDGE_CURVE ( 'NONE', #106, #101, #292, .T. ) ;
#285 = DIRECTION ( 'NONE',  ( -0.000000000000000000, -0.000000000000000000, -1.000000000000000000 ) ) ;
#286 = APPLICATION_PROTOCOL_DEFINITION ( 'international standard', 'config_control_design', 1994, #45 ) ;
#287 = AXIS2_PLACEMENT_3D ( 'NONE', #159, #37, #17 ) ;
#288 = CARTESIAN_POINT ( 'NONE',  ( 0.000000000000000000, 0.000000000000000000, 7.199999999999984190 ) ) ;
#289 = COORDINATED_UNIVERSAL_TIME_OFFSET ( 1, 0, .AHEAD. ) ;
#290 = EDGE_LOOP ( 'NONE', ( #151, #22, #191, #57 ) ) ;
#291 = DIRECTION ( 'NONE',  ( 1.224646799147353207E-16, 1.000000000000000000, -0.000000000000000000 ) ) ;
#292 = CIRCLE ( 'NONE', #72, 7.000000000000000888 ) ;
#293 = VERTEX_POINT ( 'NONE', #118 ) ;
#294 = DIRECTION ( 'NONE',  ( -1.000000000000000000, 0.000000000000000000, 0.000000000000000000 ) ) ;
#295 = ORIENTED_EDGE ( 'NONE', *, *, #73, .F. ) ;
#296 = AXIS2_PLACEMENT_3D ( 'NONE', #233, #263, #63 ) ;
#297 = DIRECTION ( 'NONE',  ( 0.000000000000000000, 0.000000000000000000, 1.000000000000000000 ) ) ;
#298 = DIRECTION ( 'NONE',  ( 0.000000000000000000, 0.000000000000000000, 1.000000000000000000 ) ) ;
#299 = CARTESIAN_POINT ( 'NONE',  ( 7.200000000000001066, 0.000000000000000000, 7.199999999999984190 ) ) ;
#300 = CIRCLE ( 'NONE', #246, 11.00000000000000000 ) ;
#301 = CC_DESIGN_SECURITY_CLASSIFICATION ( #305, ( #27 ) ) ;
#302 = CYLINDRICAL_SURFACE ( 'NONE', #32, 7.000000000000000888 ) ;
#303 = DIRECTION ( 'NONE',  ( 1.000000000000000000, 0.000000000000000000, 0.000000000000000000 ) ) ;
#304 = DIRECTION ( 'NONE',  ( 0.000000000000000000, 0.000000000000000000, 1.000000000000000000 ) ) ;
#305 = SECURITY_CLASSIFICATION ( '', '', #25 ) ;
#306 = APPROVAL_PERSON_ORGANIZATION ( #211, #59, #253 ) ;
#307 = PERSON_AND_ORGANIZATION ( #220, #217 ) ;
ENDSEC;
END-ISO-10303-21;
