ISO-10303-21;
HEADER;
FILE_DESCRIPTION (( 'STEP AP203' ),
    '1' );
FILE_NAME ('dd6d.STEP',
    '2022-07-07T10:30:21',
    ( '' ),
    ( '' ),
    'SwSTEP 2.0',
    'SolidWorks 2019',
    '' );
FILE_SCHEMA (( 'CONFIG_CONTROL_DESIGN' ));
ENDSEC;

DATA;
#1 = CARTESIAN_POINT ( 'NONE',  ( 0.000000000000000000, 0.000000000000000000, 103.0000000000000142 ) ) ;
#2 = DIRECTION ( 'NONE',  ( -1.000000000000000000, 0.000000000000000000, 0.000000000000000000 ) ) ;
#3 = ORIENTED_EDGE ( 'NONE', *, *, #125, .F. ) ;
#4 = CARTESIAN_POINT ( 'NONE',  ( 0.000000000000000000, 0.000000000000000000, 103.0000000000000142 ) ) ;
#5 = DESIGN_CONTEXT ( 'detailed design', #282, 'design' ) ;
#6 = DIRECTION ( 'NONE',  ( 0.000000000000000000, 0.000000000000000000, 1.000000000000000000 ) ) ;
#7 = CC_DESIGN_APPROVAL ( #33, ( #138 ) ) ;
#8 = DATE_AND_TIME ( #59, #128 ) ;
#9 = EDGE_CURVE ( 'NONE', #182, #216, #51, .T. ) ;
#10 = COORDINATED_UNIVERSAL_TIME_OFFSET ( 1, 0, .AHEAD. ) ;
#11 =( NAMED_UNIT ( * ) SI_UNIT ( $, .STERADIAN. ) SOLID_ANGLE_UNIT ( ) );
#12 = DATE_TIME_ROLE ( 'creation_date' ) ;
#13 = ORIENTED_EDGE ( 'NONE', *, *, #105, .F. ) ;
#14 = TOROIDAL_SURFACE ( 'NONE', #131, 1.800000000000000266, 0.2000000000000000111 ) ;
#15 =( NAMED_UNIT ( * ) PLANE_ANGLE_UNIT ( ) SI_UNIT ( $, .RADIAN. ) );
#16 = ORIENTED_EDGE ( 'NONE', *, *, #197, .T. ) ;
#17 = LINE ( 'NONE', #262, #112 ) ;
#18 = ORIENTED_EDGE ( 'NONE', *, *, #231, .F. ) ;
#19 = ORIENTED_EDGE ( 'NONE', *, *, #150, .T. ) ;
#20 = CIRCLE ( 'NONE', #113, 0.2000000000000000944 ) ;
#21 = DIRECTION ( 'NONE',  ( 1.000000000000000000, 0.000000000000000000, 0.000000000000000000 ) ) ;
#22 = CARTESIAN_POINT ( 'NONE',  ( 0.000000000000000000, 0.000000000000000000, 3.199999999999994404 ) ) ;
#23 = AXIS2_PLACEMENT_3D ( 'NONE', #229, #261, #117 ) ;
#24 = CC_DESIGN_PERSON_AND_ORGANIZATION_ASSIGNMENT ( #82, #293, ( #208 ) ) ;
#25 = DIRECTION ( 'NONE',  ( 0.000000000000000000, 0.000000000000000000, 1.000000000000000000 ) ) ;
#26 = CIRCLE ( 'NONE', #199, 1.600000000000000089 ) ;
#27 = ORIENTED_EDGE ( 'NONE', *, *, #52, .T. ) ;
#28 = DIRECTION ( 'NONE',  ( 0.000000000000000000, 0.000000000000000000, 1.000000000000000000 ) ) ;
#29 = DIRECTION ( 'NONE',  ( 0.000000000000000000, 0.000000000000000000, 1.000000000000000000 ) ) ;
#30 = CARTESIAN_POINT ( 'NONE',  ( 1.600000000000000089, 1.959434878635765230E-16, 103.0000000000000142 ) ) ;
#31 = CALENDAR_DATE ( 2022, 7, 7 ) ;
#32 = COORDINATED_UNIVERSAL_TIME_OFFSET ( 1, 0, .AHEAD. ) ;
#33 = APPROVAL ( #177, 'NEURÈENÝ' ) ;
#34 = PERSON_AND_ORGANIZATION ( #83, #91 ) ;
#35 = MANIFOLD_SOLID_BREP ( 'Zaoblit1', #251 ) ;
#36 = PERSON_AND_ORGANIZATION ( #83, #91 ) ;
#37 = EDGE_LOOP ( 'NONE', ( #110, #38, #167, #13 ) ) ;
#38 = ORIENTED_EDGE ( 'NONE', *, *, #300, .F. ) ;
#39 = EDGE_CURVE ( 'NONE', #107, #288, #268, .T. ) ;
#40 = FACE_OUTER_BOUND ( 'NONE', #45, .T. ) ;
#41 = CYLINDRICAL_SURFACE ( 'NONE', #223, 1.600000000000000089 ) ;
#42 = DIRECTION ( 'NONE',  ( 1.224646799147353207E-16, 1.000000000000000000, -0.000000000000000000 ) ) ;
#43 = CARTESIAN_POINT ( 'NONE',  ( 0.000000000000000000, 0.000000000000000000, 3.000000000000000000 ) ) ;
#44 = DIRECTION ( 'NONE',  ( 1.000000000000000000, 0.000000000000000000, 0.000000000000000000 ) ) ;
#45 = EDGE_LOOP ( 'NONE', ( #122, #204, #19, #3 ) ) ;
#46 = AXIS2_PLACEMENT_3D ( 'NONE', #100, #28, #193 ) ;
#47 = AXIS2_PLACEMENT_3D ( 'NONE', #81, #6, #176 ) ;
#48 = CARTESIAN_POINT ( 'NONE',  ( -1.600000000000000089, 0.000000000000000000, 3.199999999999994404 ) ) ;
#49 = CC_DESIGN_PERSON_AND_ORGANIZATION_ASSIGNMENT ( #222, #196, ( #191 ) ) ;
#50 = ORIENTED_EDGE ( 'NONE', *, *, #175, .T. ) ;
#51 = CIRCLE ( 'NONE', #170, 3.000000000000000444 ) ;
#52 = EDGE_CURVE ( 'NONE', #169, #134, #133, .T. ) ;
#53 = DIRECTION ( 'NONE',  ( 0.000000000000000000, 0.000000000000000000, -1.000000000000000000 ) ) ;
#54 = PRODUCT_DEFINITION_SHAPE ( 'NONE', 'NONE',  #138 ) ;
#55 = CARTESIAN_POINT ( 'NONE',  ( 0.000000000000000000, 0.000000000000000000, 3.000000000000000000 ) ) ;
#56 = LINE ( 'NONE', #228, #265 ) ;
#57 = CALENDAR_DATE ( 2022, 7, 7 ) ;
#58 = APPLICATION_PROTOCOL_DEFINITION ( 'international standard', 'config_control_design', 1994, #282 ) ;
#59 = CALENDAR_DATE ( 2022, 7, 7 ) ;
#60 = VECTOR ( 'NONE', #230, 1000.000000000000000 ) ;
#61 = APPROVAL_STATUS ( 'not_yet_approved' ) ;
#62 = MECHANICAL_CONTEXT ( 'NONE', #153, 'mechanical' ) ;
#63 = CIRCLE ( 'NONE', #46, 1.600000000000000089 ) ;
#64 = TOROIDAL_SURFACE ( 'NONE', #186, 1.800000000000000266, 0.2000000000000000111 ) ;
#65 = ORIENTED_EDGE ( 'NONE', *, *, #86, .T. ) ;
#66 = DIRECTION ( 'NONE',  ( -0.000000000000000000, -0.000000000000000000, -1.000000000000000000 ) ) ;
#67 = DIRECTION ( 'NONE',  ( -0.000000000000000000, -0.000000000000000000, -1.000000000000000000 ) ) ;
#68 = DIRECTION ( 'NONE',  ( -0.000000000000000000, -0.000000000000000000, -1.000000000000000000 ) ) ;
#69 = ORIENTED_EDGE ( 'NONE', *, *, #175, .F. ) ;
#70 = DIRECTION ( 'NONE',  ( 1.000000000000000000, 0.000000000000000000, -0.000000000000000000 ) ) ;
#71 = CC_DESIGN_APPROVAL ( #295, ( #208 ) ) ;
#72 = CC_DESIGN_APPROVAL ( #303, ( #191 ) ) ;
#73 = LINE ( 'NONE', #235, #179 ) ;
#74 = CARTESIAN_POINT ( 'NONE',  ( 1.800000000000000266, 0.000000000000000000, 2.999999999999997335 ) ) ;
#75 = DIRECTION ( 'NONE',  ( 0.000000000000000000, 0.000000000000000000, 1.000000000000000000 ) ) ;
#76 = DIRECTION ( 'NONE',  ( 0.000000000000000000, 0.000000000000000000, 1.000000000000000000 ) ) ;
#77 = FACE_BOUND ( 'NONE', #145, .T. ) ;
#78 = LOCAL_TIME ( 12, 30, 21.00000000000000000, #130 ) ;
#79 = SHAPE_DEFINITION_REPRESENTATION ( #54, #267 ) ;
#80 = CIRCLE ( 'NONE', #198, 0.1999999999999998723 ) ;
#81 = CARTESIAN_POINT ( 'NONE',  ( 0.000000000000000000, 0.000000000000000000, 0.000000000000000000 ) ) ;
#82 = PERSON_AND_ORGANIZATION ( #83, #91 ) ;
#83 = PERSON ( 'NEURÈENÝ', 'NEURÈENÝ', 'NEURÈENÝ', ('NEURÈENÝ'), ('NEURÈENÝ'), ('NEURÈENÝ') ) ;
#84 = EDGE_LOOP ( 'NONE', ( #27, #143 ) ) ;
#85 = AXIS2_PLACEMENT_3D ( 'NONE', #43, #239, #195 ) ;
#86 = EDGE_CURVE ( 'NONE', #132, #249, #80, .T. ) ;
#87 = ORIENTED_EDGE ( 'NONE', *, *, #52, .F. ) ;
#88 = DIRECTION ( 'NONE',  ( 1.000000000000000000, 0.000000000000000000, 0.000000000000000000 ) ) ;
#89 = DIRECTION ( 'NONE',  ( 0.000000000000000000, -1.000000000000000000, 0.000000000000000000 ) ) ;
#90 = ORIENTED_EDGE ( 'NONE', *, *, #9, .T. ) ;
#91 = ORGANIZATION ( 'NEURÈENÝ', 'NEURÈENÝ', '' ) ;
#92 = ADVANCED_FACE ( 'NONE', ( #93 ), #140, .F. ) ;
#93 = FACE_OUTER_BOUND ( 'NONE', #227, .T. ) ;
#94 = FACE_OUTER_BOUND ( 'NONE', #248, .T. ) ;
#95 = ADVANCED_FACE ( 'NONE', ( #302 ), #190, .T. ) ;
#96 = ORIENTED_EDGE ( 'NONE', *, *, #150, .F. ) ;
#97 = CARTESIAN_POINT ( 'NONE',  ( -1.600000000000000089, 0.000000000000000000, 103.0000000000000142 ) ) ;
#98 = ORIENTED_EDGE ( 'NONE', *, *, #9, .F. ) ;
#99 = LINE ( 'NONE', #30, #60 ) ;
#100 = CARTESIAN_POINT ( 'NONE',  ( 0.000000000000000000, 0.000000000000000000, 3.199999999999994404 ) ) ;
#101 = APPROVAL_DATE_TIME ( #173, #33 ) ;
#102 = AXIS2_PLACEMENT_3D ( 'NONE', #115, #206, #214 ) ;
#103 = PERSON_AND_ORGANIZATION_ROLE ( 'creator' ) ;
#104 = CIRCLE ( 'NONE', #109, 1.800000000000000266 ) ;
#105 = EDGE_CURVE ( 'NONE', #249, #163, #104, .T. ) ;
#106 = APPLICATION_PROTOCOL_DEFINITION ( 'international standard', 'config_control_design', 1994, #153 ) ;
#107 = VERTEX_POINT ( 'NONE', #258 ) ;
#108 = PERSON_AND_ORGANIZATION_ROLE ( 'creator' ) ;
#109 = AXIS2_PLACEMENT_3D ( 'NONE', #188, #283, #284 ) ;
#110 = ORIENTED_EDGE ( 'NONE', *, *, #86, .F. ) ;
#111 = EDGE_CURVE ( 'NONE', #132, #178, #194, .T. ) ;
#112 = VECTOR ( 'NONE', #66, 1000.000000000000000 ) ;
#113 = AXIS2_PLACEMENT_3D ( 'NONE', #171, #89, #53 ) ;
#114 = CARTESIAN_POINT ( 'NONE',  ( -1.800000000000000266, 2.204364238465236069E-16, 2.999999999999997335 ) ) ;
#115 = CARTESIAN_POINT ( 'NONE',  ( 0.000000000000000000, 0.000000000000000000, 3.000000000000000000 ) ) ;
#116 = ORIENTED_EDGE ( 'NONE', *, *, #105, .T. ) ;
#117 = DIRECTION ( 'NONE',  ( 1.000000000000000000, 0.000000000000000000, -0.000000000000000000 ) ) ;
#118 = PLANE ( 'NONE',  #252 ) ;
#119 = ADVANCED_FACE ( 'NONE', ( #94 ), #118, .T. ) ;
#120 = DIRECTION ( 'NONE',  ( 1.000000000000000000, 0.000000000000000000, 0.000000000000000000 ) ) ;
#121 = CARTESIAN_POINT ( 'NONE',  ( 0.000000000000000000, 0.000000000000000000, 3.199999999999994404 ) ) ;
#122 = ORIENTED_EDGE ( 'NONE', *, *, #307, .F. ) ;
#123 = DIRECTION ( 'NONE',  ( 1.000000000000000000, 0.000000000000000000, 0.000000000000000000 ) ) ;
#124 = CARTESIAN_POINT ( 'NONE',  ( -3.000000000000000444, 0.000000000000000000, 3.000000000000000000 ) ) ;
#125 = EDGE_CURVE ( 'NONE', #169, #182, #73, .T. ) ;
#126 = AXIS2_PLACEMENT_3D ( 'NONE', #207, #147, #290 ) ;
#127 = APPROVAL_DATE_TIME ( #243, #295 ) ;
#128 = LOCAL_TIME ( 12, 30, 21.00000000000000000, #10 ) ;
#129 = DATE_AND_TIME ( #296, #219 ) ;
#130 = COORDINATED_UNIVERSAL_TIME_OFFSET ( 1, 0, .AHEAD. ) ;
#131 = AXIS2_PLACEMENT_3D ( 'NONE', #301, #168, #136 ) ;
#132 = VERTEX_POINT ( 'NONE', #48 ) ;
#133 = CIRCLE ( 'NONE', #212, 3.000000000000000444 ) ;
#134 = VERTEX_POINT ( 'NONE', #213 ) ;
#135 = PRODUCT_RELATED_PRODUCT_CATEGORY ( 'detail', '', ( #151 ) ) ;
#136 = DIRECTION ( 'NONE',  ( 1.000000000000000000, 0.000000000000000000, 0.000000000000000000 ) ) ;
#137 = ORIENTED_EDGE ( 'NONE', *, *, #210, .F. ) ;
#138 = PRODUCT_DEFINITION ( 'NEZNÁMÝ', '', #191, #5 ) ;
#139 = CYLINDRICAL_SURFACE ( 'NONE', #85, 3.000000000000000444 ) ;
#140 = PLANE ( 'NONE',  #23 ) ;
#141 = CARTESIAN_POINT ( 'NONE',  ( -3.000000000000000444, 0.000000000000000000, 0.000000000000000000 ) ) ;
#142 = CARTESIAN_POINT ( 'NONE',  ( -1.800000000000000266, 2.204364238465236069E-16, 3.199999999999994404 ) ) ;
#143 = ORIENTED_EDGE ( 'NONE', *, *, #307, .T. ) ;
#144 = CIRCLE ( 'NONE', #172, 1.800000000000000266 ) ;
#145 = EDGE_LOOP ( 'NONE', ( #298, #116 ) ) ;
#146 = EDGE_CURVE ( 'NONE', #288, #107, #26, .T. ) ;
#147 = DIRECTION ( 'NONE',  ( 0.000000000000000000, 0.000000000000000000, 1.000000000000000000 ) ) ;
#148 = FACE_OUTER_BOUND ( 'NONE', #275, .T. ) ;
#149 = DIRECTION ( 'NONE',  ( 0.000000000000000000, 0.000000000000000000, 1.000000000000000000 ) ) ;
#150 = EDGE_CURVE ( 'NONE', #216, #182, #181, .T. ) ;
#151 = PRODUCT ( 'dd6d', 'dd6d', '', ( #62 ) ) ;
#152 = PERSON_AND_ORGANIZATION_ROLE ( 'design_owner' ) ;
#153 = APPLICATION_CONTEXT ( 'configuration controlled 3d designs of mechanical parts and assemblies' ) ;
#154 = APPROVAL_ROLE ( '' ) ;
#155 = AXIS2_PLACEMENT_3D ( 'NONE', #256, #25, #237 ) ;
#156 = APPROVAL_DATE_TIME ( #129, #303 ) ;
#157 = APPROVAL_PERSON_ORGANIZATION ( #266, #33, #154 ) ;
#158 = COORDINATED_UNIVERSAL_TIME_OFFSET ( 1, 0, .AHEAD. ) ;
#159 = EDGE_CURVE ( 'NONE', #163, #249, #144, .T. ) ;
#160 = ORIENTED_EDGE ( 'NONE', *, *, #197, .F. ) ;
#161 = FACE_OUTER_BOUND ( 'NONE', #209, .T. ) ;
#162 =( LENGTH_UNIT ( ) NAMED_UNIT ( * ) SI_UNIT ( .MILLI., .METRE. ) );
#163 = VERTEX_POINT ( 'NONE', #74 ) ;
#164 = CARTESIAN_POINT ( 'NONE',  ( 0.000000000000000000, 0.000000000000000000, 3.000000000000000000 ) ) ;
#165 = ADVANCED_FACE ( 'NONE', ( #40 ), #139, .T. ) ;
#166 = DIRECTION ( 'NONE',  ( 0.000000000000000000, 0.000000000000000000, 1.000000000000000000 ) ) ;
#167 = ORIENTED_EDGE ( 'NONE', *, *, #231, .T. ) ;
#168 = DIRECTION ( 'NONE',  ( 0.000000000000000000, 0.000000000000000000, 1.000000000000000000 ) ) ;
#169 = VERTEX_POINT ( 'NONE', #124 ) ;
#170 = AXIS2_PLACEMENT_3D ( 'NONE', #306, #192, #44 ) ;
#171 = CARTESIAN_POINT ( 'NONE',  ( 1.800000000000000266, 0.000000000000000000, 3.199999999999994404 ) ) ;
#172 = AXIS2_PLACEMENT_3D ( 'NONE', #55, #289, #292 ) ;
#173 = DATE_AND_TIME ( #269, #274 ) ;
#174 = PERSON_AND_ORGANIZATION ( #83, #91 ) ;
#175 = EDGE_CURVE ( 'NONE', #288, #132, #56, .T. ) ;
#176 = DIRECTION ( 'NONE',  ( 1.000000000000000000, 0.000000000000000000, 0.000000000000000000 ) ) ;
#177 = APPROVAL_STATUS ( 'not_yet_approved' ) ;
#178 = VERTEX_POINT ( 'NONE', #291 ) ;
#179 = VECTOR ( 'NONE', #259, 1000.000000000000000 ) ;
#180 = ORIENTED_EDGE ( 'NONE', *, *, #39, .T. ) ;
#181 = CIRCLE ( 'NONE', #242, 3.000000000000000444 ) ;
#182 = VERTEX_POINT ( 'NONE', #141 ) ;
#183 = ORIENTED_EDGE ( 'NONE', *, *, #111, .T. ) ;
#184 = PLANE ( 'NONE',  #155 ) ;
#185 = ORIENTED_EDGE ( 'NONE', *, *, #146, .T. ) ;
#186 = AXIS2_PLACEMENT_3D ( 'NONE', #121, #76, #88 ) ;
#187 = EDGE_LOOP ( 'NONE', ( #224, #16, #277, #69 ) ) ;
#188 = CARTESIAN_POINT ( 'NONE',  ( 0.000000000000000000, 0.000000000000000000, 3.000000000000000000 ) ) ;
#189 = DIRECTION ( 'NONE',  ( 0.000000000000000000, 0.000000000000000000, 1.000000000000000000 ) ) ;
#190 = CYLINDRICAL_SURFACE ( 'NONE', #278, 1.600000000000000089 ) ;
#191 = PRODUCT_DEFINITION_FORMATION_WITH_SPECIFIED_SOURCE ( 'LIBOVOLNÝ', '', #151, .NOT_KNOWN. ) ;
#192 = DIRECTION ( 'NONE',  ( 0.000000000000000000, 0.000000000000000000, 1.000000000000000000 ) ) ;
#193 = DIRECTION ( 'NONE',  ( 1.000000000000000000, 0.000000000000000000, 0.000000000000000000 ) ) ;
#194 = CIRCLE ( 'NONE', #225, 1.600000000000000089 ) ;
#195 = DIRECTION ( 'NONE',  ( -1.000000000000000000, 0.000000000000000000, 0.000000000000000000 ) ) ;
#196 = PERSON_AND_ORGANIZATION_ROLE ( 'design_supplier' ) ;
#197 = EDGE_CURVE ( 'NONE', #107, #178, #99, .T. ) ;
#198 = AXIS2_PLACEMENT_3D ( 'NONE', #142, #42, #234 ) ;
#199 = AXIS2_PLACEMENT_3D ( 'NONE', #1, #29, #123 ) ;
#200 = PERSON_AND_ORGANIZATION ( #83, #91 ) ;
#201 = CC_DESIGN_DATE_AND_TIME_ASSIGNMENT ( #8, #12, ( #138 ) ) ;
#202 = ORIENTED_EDGE ( 'NONE', *, *, #159, .F. ) ;
#203 = APPROVAL_PERSON_ORGANIZATION ( #36, #295, #241 ) ;
#204 = ORIENTED_EDGE ( 'NONE', *, *, #210, .T. ) ;
#205 = DIRECTION ( 'NONE',  ( 0.000000000000000000, 0.000000000000000000, 1.000000000000000000 ) ) ;
#206 = DIRECTION ( 'NONE',  ( -0.000000000000000000, -0.000000000000000000, -1.000000000000000000 ) ) ;
#207 = CARTESIAN_POINT ( 'NONE',  ( 0.000000000000000000, 0.000000000000000000, 103.0000000000000142 ) ) ;
#208 = SECURITY_CLASSIFICATION ( '', '', #221 ) ;
#209 = EDGE_LOOP ( 'NONE', ( #137, #87, #236, #90 ) ) ;
#210 = EDGE_CURVE ( 'NONE', #134, #216, #17, .T. ) ;
#211 = CARTESIAN_POINT ( 'NONE',  ( 0.000000000000000000, 0.000000000000000000, 103.0000000000000142 ) ) ;
#212 = AXIS2_PLACEMENT_3D ( 'NONE', #164, #75, #120 ) ;
#213 = CARTESIAN_POINT ( 'NONE',  ( 3.000000000000000444, 3.673940397442060361E-16, 3.000000000000000000 ) ) ;
#214 = DIRECTION ( 'NONE',  ( -1.000000000000000000, 0.000000000000000000, 0.000000000000000000 ) ) ;
#215 = ADVANCED_FACE ( 'NONE', ( #299 ), #14, .F. ) ;
#216 = VERTEX_POINT ( 'NONE', #264 ) ;
#217 = FACE_OUTER_BOUND ( 'NONE', #257, .T. ) ;
#218 = PERSON_AND_ORGANIZATION ( #83, #91 ) ;
#219 = LOCAL_TIME ( 12, 30, 21.00000000000000000, #32 ) ;
#220 = COORDINATED_UNIVERSAL_TIME_OFFSET ( 1, 0, .AHEAD. ) ;
#221 = SECURITY_CLASSIFICATION_LEVEL ( 'unclassified' ) ;
#222 = PERSON_AND_ORGANIZATION ( #83, #91 ) ;
#223 = AXIS2_PLACEMENT_3D ( 'NONE', #4, #279, #2 ) ;
#224 = ORIENTED_EDGE ( 'NONE', *, *, #39, .F. ) ;
#225 = AXIS2_PLACEMENT_3D ( 'NONE', #22, #166, #21 ) ;
#226 = CYLINDRICAL_SURFACE ( 'NONE', #102, 3.000000000000000444 ) ;
#227 = EDGE_LOOP ( 'NONE', ( #98, #96 ) ) ;
#228 = CARTESIAN_POINT ( 'NONE',  ( -1.600000000000000089, 0.000000000000000000, 103.0000000000000142 ) ) ;
#229 = CARTESIAN_POINT ( 'NONE',  ( 0.000000000000000000, 0.000000000000000000, 0.000000000000000000 ) ) ;
#230 = DIRECTION ( 'NONE',  ( -0.000000000000000000, -0.000000000000000000, -1.000000000000000000 ) ) ;
#231 = EDGE_CURVE ( 'NONE', #178, #163, #20, .T. ) ;
#232 = ORIENTED_EDGE ( 'NONE', *, *, #146, .F. ) ;
#233 = CC_DESIGN_SECURITY_CLASSIFICATION ( #208, ( #191 ) ) ;
#234 = DIRECTION ( 'NONE',  ( -1.000000000000000000, 1.224646799147354686E-16, 0.000000000000000000 ) ) ;
#235 = CARTESIAN_POINT ( 'NONE',  ( -3.000000000000000444, 0.000000000000000000, 3.000000000000000000 ) ) ;
#236 = ORIENTED_EDGE ( 'NONE', *, *, #125, .T. ) ;
#237 = DIRECTION ( 'NONE',  ( 1.000000000000000000, 0.000000000000000000, -0.000000000000000000 ) ) ;
#238 = DIRECTION ( 'NONE',  ( 1.000000000000000000, 0.000000000000000000, 0.000000000000000000 ) ) ;
#239 = DIRECTION ( 'NONE',  ( -0.000000000000000000, -0.000000000000000000, -1.000000000000000000 ) ) ;
#240 = UNCERTAINTY_MEASURE_WITH_UNIT (LENGTH_MEASURE( 1.000000000000000082E-05 ), #162, 'distance_accuracy_value', 'NONE');
#241 = APPROVAL_ROLE ( '' ) ;
#242 = AXIS2_PLACEMENT_3D ( 'NONE', #263, #149, #238 ) ;
#243 = DATE_AND_TIME ( #31, #247 ) ;
#244 = CC_DESIGN_PERSON_AND_ORGANIZATION_ASSIGNMENT ( #34, #152, ( #151 ) ) ;
#245 = DATE_AND_TIME ( #57, #78 ) ;
#246 = CC_DESIGN_PERSON_AND_ORGANIZATION_ASSIGNMENT ( #174, #103, ( #191 ) ) ;
#247 = LOCAL_TIME ( 12, 30, 21.00000000000000000, #220 ) ;
#248 = EDGE_LOOP ( 'NONE', ( #185, #180 ) ) ;
#249 = VERTEX_POINT ( 'NONE', #114 ) ;
#250 = ADVANCED_FACE ( 'NONE', ( #148 ), #64, .F. ) ;
#251 = CLOSED_SHELL ( 'NONE', ( #250, #95, #165, #260, #255, #92, #270, #119, #215 ) ) ;
#252 = AXIS2_PLACEMENT_3D ( 'NONE', #211, #189, #70 ) ;
#253 = CARTESIAN_POINT ( 'NONE',  ( 0.000000000000000000, 0.000000000000000000, 3.000000000000000000 ) ) ;
#254 = FACE_OUTER_BOUND ( 'NONE', #84, .T. ) ;
#255 = ADVANCED_FACE ( 'NONE', ( #77, #254 ), #184, .T. ) ;
#256 = CARTESIAN_POINT ( 'NONE',  ( 0.000000000000000000, 0.000000000000000000, 3.000000000000000000 ) ) ;
#257 = EDGE_LOOP ( 'NONE', ( #160, #232, #50, #183 ) ) ;
#258 = CARTESIAN_POINT ( 'NONE',  ( 1.600000000000000089, 1.959434878635765230E-16, 103.0000000000000142 ) ) ;
#259 = DIRECTION ( 'NONE',  ( -0.000000000000000000, -0.000000000000000000, -1.000000000000000000 ) ) ;
#260 = ADVANCED_FACE ( 'NONE', ( #161 ), #226, .T. ) ;
#261 = DIRECTION ( 'NONE',  ( 0.000000000000000000, 0.000000000000000000, 1.000000000000000000 ) ) ;
#262 = CARTESIAN_POINT ( 'NONE',  ( 3.000000000000000444, 3.673940397442060361E-16, 3.000000000000000000 ) ) ;
#263 = CARTESIAN_POINT ( 'NONE',  ( 0.000000000000000000, 0.000000000000000000, 0.000000000000000000 ) ) ;
#264 = CARTESIAN_POINT ( 'NONE',  ( 3.000000000000000444, 3.673940397442060361E-16, 0.000000000000000000 ) ) ;
#265 = VECTOR ( 'NONE', #67, 1000.000000000000000 ) ;
#266 = PERSON_AND_ORGANIZATION ( #83, #91 ) ;
#267 = ADVANCED_BREP_SHAPE_REPRESENTATION ( 'dd6d', ( #35, #47 ), #285 ) ;
#268 = CIRCLE ( 'NONE', #126, 1.600000000000000089 ) ;
#269 = CALENDAR_DATE ( 2022, 7, 7 ) ;
#270 = ADVANCED_FACE ( 'NONE', ( #217 ), #41, .T. ) ;
#271 = DATE_TIME_ROLE ( 'classification_date' ) ;
#272 = APPROVAL_STATUS ( 'not_yet_approved' ) ;
#273 = CIRCLE ( 'NONE', #286, 3.000000000000000444 ) ;
#274 = LOCAL_TIME ( 12, 30, 21.00000000000000000, #158 ) ;
#275 = EDGE_LOOP ( 'NONE', ( #297, #65, #202, #18 ) ) ;
#276 = CC_DESIGN_DATE_AND_TIME_ASSIGNMENT ( #245, #271, ( #208 ) ) ;
#277 = ORIENTED_EDGE ( 'NONE', *, *, #300, .T. ) ;
#278 = AXIS2_PLACEMENT_3D ( 'NONE', #281, #68, #305 ) ;
#279 = DIRECTION ( 'NONE',  ( -0.000000000000000000, -0.000000000000000000, -1.000000000000000000 ) ) ;
#280 = DIRECTION ( 'NONE',  ( 1.000000000000000000, 0.000000000000000000, 0.000000000000000000 ) ) ;
#281 = CARTESIAN_POINT ( 'NONE',  ( 0.000000000000000000, 0.000000000000000000, 103.0000000000000142 ) ) ;
#282 = APPLICATION_CONTEXT ( 'configuration controlled 3d designs of mechanical parts and assemblies' ) ;
#283 = DIRECTION ( 'NONE',  ( -0.000000000000000000, -0.000000000000000000, -1.000000000000000000 ) ) ;
#284 = DIRECTION ( 'NONE',  ( 1.000000000000000000, 0.000000000000000000, 0.000000000000000000 ) ) ;
#285 =( GEOMETRIC_REPRESENTATION_CONTEXT ( 3 ) GLOBAL_UNCERTAINTY_ASSIGNED_CONTEXT ( ( #240 ) ) GLOBAL_UNIT_ASSIGNED_CONTEXT ( ( #162, #15, #11 ) ) REPRESENTATION_CONTEXT ( 'NONE', 'WORKASPACE' ) );
#286 = AXIS2_PLACEMENT_3D ( 'NONE', #253, #205, #280 ) ;
#287 = CC_DESIGN_PERSON_AND_ORGANIZATION_ASSIGNMENT ( #200, #108, ( #138 ) ) ;
#288 = VERTEX_POINT ( 'NONE', #97 ) ;
#289 = DIRECTION ( 'NONE',  ( -0.000000000000000000, -0.000000000000000000, -1.000000000000000000 ) ) ;
#290 = DIRECTION ( 'NONE',  ( 1.000000000000000000, 0.000000000000000000, 0.000000000000000000 ) ) ;
#291 = CARTESIAN_POINT ( 'NONE',  ( 1.600000000000000089, 1.959434878635765230E-16, 3.199999999999994404 ) ) ;
#292 = DIRECTION ( 'NONE',  ( 1.000000000000000000, 0.000000000000000000, 0.000000000000000000 ) ) ;
#293 = PERSON_AND_ORGANIZATION_ROLE ( 'classification_officer' ) ;
#294 = APPROVAL_ROLE ( '' ) ;
#295 = APPROVAL ( #61, 'NEURÈENÝ' ) ;
#296 = CALENDAR_DATE ( 2022, 7, 7 ) ;
#297 = ORIENTED_EDGE ( 'NONE', *, *, #111, .F. ) ;
#298 = ORIENTED_EDGE ( 'NONE', *, *, #159, .T. ) ;
#299 = FACE_OUTER_BOUND ( 'NONE', #37, .T. ) ;
#300 = EDGE_CURVE ( 'NONE', #178, #132, #63, .T. ) ;
#301 = CARTESIAN_POINT ( 'NONE',  ( 0.000000000000000000, 0.000000000000000000, 3.199999999999994404 ) ) ;
#302 = FACE_OUTER_BOUND ( 'NONE', #187, .T. ) ;
#303 = APPROVAL ( #272, 'NEURÈENÝ' ) ;
#304 = APPROVAL_PERSON_ORGANIZATION ( #218, #303, #294 ) ;
#305 = DIRECTION ( 'NONE',  ( -1.000000000000000000, 0.000000000000000000, 0.000000000000000000 ) ) ;
#306 = CARTESIAN_POINT ( 'NONE',  ( 0.000000000000000000, 0.000000000000000000, 0.000000000000000000 ) ) ;
#307 = EDGE_CURVE ( 'NONE', #134, #169, #273, .T. ) ;
ENDSEC;
END-ISO-10303-21;
