ISO-10303-21;
HEADER;
FILE_DESCRIPTION (( 'STEP AP203' ),
    '1' );
FILE_NAME ('88ca.STEP',
    '2022-07-07T10:10:55',
    ( '' ),
    ( '' ),
    'SwSTEP 2.0',
    'SolidWorks 2019',
    '' );
FILE_SCHEMA (( 'CONFIG_CONTROL_DESIGN' ));
ENDSEC;

DATA;
#1 = EDGE_CURVE ( 'NONE', #254, #137, #88, .T. ) ;
#2 = CARTESIAN_POINT ( 'NONE',  ( 0.000000000000000000, 0.000000000000000000, 5.000000000000000000 ) ) ;
#3 = DIRECTION ( 'NONE',  ( 1.000000000000000000, 0.000000000000000000, -0.000000000000000000 ) ) ;
#4 = CLOSED_SHELL ( 'NONE', ( #52, #299, #249, #66, #194, #122, #61, #93, #293 ) ) ;
#5 = CARTESIAN_POINT ( 'NONE',  ( -3.100000000000000089, 0.000000000000000000, 405.0000000000000000 ) ) ;
#6 = APPLICATION_CONTEXT ( 'configuration controlled 3d designs of mechanical parts and assemblies' ) ;
#7 = APPROVAL ( #84, 'NEURÈENÝ' ) ;
#8 = CIRCLE ( 'NONE', #86, 3.100000000000000089 ) ;
#9 = PERSON_AND_ORGANIZATION_ROLE ( 'classification_officer' ) ;
#10 = CARTESIAN_POINT ( 'NONE',  ( 0.000000000000000000, 0.000000000000000000, 0.000000000000000000 ) ) ;
#11 = CALENDAR_DATE ( 2022, 7, 7 ) ;
#12 = DATE_TIME_ROLE ( 'creation_date' ) ;
#13 = APPROVAL_ROLE ( '' ) ;
#14 = ORIENTED_EDGE ( 'NONE', *, *, #131, .T. ) ;
#15 = EDGE_CURVE ( 'NONE', #145, #184, #118, .T. ) ;
#16 = DIRECTION ( 'NONE',  ( 0.000000000000000000, 0.000000000000000000, -1.000000000000000000 ) ) ;
#17 = EDGE_LOOP ( 'NONE', ( #203, #224, #175, #81 ) ) ;
#18 = ORIENTED_EDGE ( 'NONE', *, *, #15, .T. ) ;
#19 = LINE ( 'NONE', #68, #59 ) ;
#20 = APPROVAL_PERSON_ORGANIZATION ( #297, #7, #273 ) ;
#21 = DIRECTION ( 'NONE',  ( 1.000000000000000000, 0.000000000000000000, 0.000000000000000000 ) ) ;
#22 = DIRECTION ( 'NONE',  ( 1.000000000000000000, 0.000000000000000000, 0.000000000000000000 ) ) ;
#23 = CARTESIAN_POINT ( 'NONE',  ( 0.000000000000000000, 0.000000000000000000, 405.0000000000000000 ) ) ;
#24 = LOCAL_TIME ( 12, 10, 55.00000000000000000, #134 ) ;
#25 = CARTESIAN_POINT ( 'NONE',  ( 0.000000000000000000, 0.000000000000000000, 5.199999999999982414 ) ) ;
#26 = EDGE_CURVE ( 'NONE', #55, #43, #19, .T. ) ;
#27 = FACE_OUTER_BOUND ( 'NONE', #230, .T. ) ;
#28 = AXIS2_PLACEMENT_3D ( 'NONE', #65, #143, #115 ) ;
#29 = AXIS2_PLACEMENT_3D ( 'NONE', #216, #95, #96 ) ;
#30 = PERSON_AND_ORGANIZATION ( #87, #56 ) ;
#31 = COORDINATED_UNIVERSAL_TIME_OFFSET ( 1, 0, .AHEAD. ) ;
#32 = AXIS2_PLACEMENT_3D ( 'NONE', #72, #48, #53 ) ;
#33 = PERSON_AND_ORGANIZATION ( #87, #56 ) ;
#34 = EDGE_LOOP ( 'NONE', ( #279, #213, #135, #89 ) ) ;
#35 = EDGE_CURVE ( 'NONE', #184, #145, #243, .T. ) ;
#36 = ORIENTED_EDGE ( 'NONE', *, *, #281, .F. ) ;
#37 = ORIENTED_EDGE ( 'NONE', *, *, #303, .T. ) ;
#38 = CC_DESIGN_APPROVAL ( #228, ( #144 ) ) ;
#39 = DIRECTION ( 'NONE',  ( 0.000000000000000000, 0.000000000000000000, 1.000000000000000000 ) ) ;
#40 = CC_DESIGN_PERSON_AND_ORGANIZATION_ASSIGNMENT ( #201, #292, ( #270 ) ) ;
#41 = FACE_OUTER_BOUND ( 'NONE', #298, .T. ) ;
#42 = AXIS2_PLACEMENT_3D ( 'NONE', #141, #304, #16 ) ;
#43 = VERTEX_POINT ( 'NONE', #215 ) ;
#44 = PLANE ( 'NONE',  #197 ) ;
#45 = AXIS2_PLACEMENT_3D ( 'NONE', #191, #218, #22 ) ;
#46 = DIRECTION ( 'NONE',  ( 0.000000000000000000, 0.000000000000000000, 1.000000000000000000 ) ) ;
#47 = EDGE_CURVE ( 'NONE', #43, #271, #112, .T. ) ;
#48 = DIRECTION ( 'NONE',  ( 0.000000000000000000, 0.000000000000000000, 1.000000000000000000 ) ) ;
#49 = CIRCLE ( 'NONE', #32, 3.100000000000000089 ) ;
#50 = CARTESIAN_POINT ( 'NONE',  ( -6.000000000000000888, 0.000000000000000000, 5.000000000000000000 ) ) ;
#51 = AXIS2_PLACEMENT_3D ( 'NONE', #2, #289, #129 ) ;
#52 = ADVANCED_FACE ( 'NONE', ( #92 ), #276, .F. ) ;
#53 = DIRECTION ( 'NONE',  ( 1.000000000000000000, 0.000000000000000000, 0.000000000000000000 ) ) ;
#54 = DIRECTION ( 'NONE',  ( 1.000000000000000000, 0.000000000000000000, -0.000000000000000000 ) ) ;
#55 = VERTEX_POINT ( 'NONE', #188 ) ;
#56 = ORGANIZATION ( 'NEURÈENÝ', 'NEURÈENÝ', '' ) ;
#57 = APPROVAL ( #248, 'NEURÈENÝ' ) ;
#58 = APPLICATION_PROTOCOL_DEFINITION ( 'international standard', 'config_control_design', 1994, #6 ) ;
#59 = VECTOR ( 'NONE', #280, 1000.000000000000000 ) ;
#60 = PERSON_AND_ORGANIZATION_ROLE ( 'creator' ) ;
#61 = ADVANCED_FACE ( 'NONE', ( #164 ), #257, .T. ) ;
#62 = CALENDAR_DATE ( 2022, 7, 7 ) ;
#63 = ORIENTED_EDGE ( 'NONE', *, *, #264, .F. ) ;
#64 = DIRECTION ( 'NONE',  ( 1.000000000000000000, 0.000000000000000000, 0.000000000000000000 ) ) ;
#65 = CARTESIAN_POINT ( 'NONE',  ( 0.000000000000000000, 0.000000000000000000, 5.199999999999982414 ) ) ;
#66 = ADVANCED_FACE ( 'NONE', ( #41 ), #255, .T. ) ;
#67 = LOCAL_TIME ( 12, 10, 55.00000000000000000, #178 ) ;
#68 = CARTESIAN_POINT ( 'NONE',  ( 3.100000000000000089, 3.796405077356794918E-16, 405.0000000000000000 ) ) ;
#69 = ORIENTED_EDGE ( 'NONE', *, *, #35, .T. ) ;
#70 = DIRECTION ( 'NONE',  ( 0.000000000000000000, 0.000000000000000000, 1.000000000000000000 ) ) ;
#71 = EDGE_CURVE ( 'NONE', #182, #205, #133, .T. ) ;
#72 = CARTESIAN_POINT ( 'NONE',  ( 0.000000000000000000, 0.000000000000000000, 5.199999999999982414 ) ) ;
#73 = VECTOR ( 'NONE', #125, 1000.000000000000000 ) ;
#74 = CYLINDRICAL_SURFACE ( 'NONE', #291, 3.100000000000000089 ) ;
#75 = APPLICATION_CONTEXT ( 'configuration controlled 3d designs of mechanical parts and assemblies' ) ;
#76 = CARTESIAN_POINT ( 'NONE',  ( -6.000000000000000888, 0.000000000000000000, 5.000000000000000000 ) ) ;
#77 = CC_DESIGN_PERSON_AND_ORGANIZATION_ASSIGNMENT ( #106, #60, ( #270 ) ) ;
#78 = CARTESIAN_POINT ( 'NONE',  ( 0.000000000000000000, 0.000000000000000000, 5.000000000000000000 ) ) ;
#79 = CYLINDRICAL_SURFACE ( 'NONE', #226, 6.000000000000000888 ) ;
#80 = DATE_AND_TIME ( #11, #231 ) ;
#81 = ORIENTED_EDGE ( 'NONE', *, *, #1, .F. ) ;
#82 = SECURITY_CLASSIFICATION_LEVEL ( 'unclassified' ) ;
#83 = APPROVAL_ROLE ( '' ) ;
#84 = APPROVAL_STATUS ( 'not_yet_approved' ) ;
#85 = ORIENTED_EDGE ( 'NONE', *, *, #212, .T. ) ;
#86 = AXIS2_PLACEMENT_3D ( 'NONE', #25, #239, #127 ) ;
#87 = PERSON ( 'NEURÈENÝ', 'NEURÈENÝ', 'NEURÈENÝ', ('NEURÈENÝ'), ('NEURÈENÝ'), ('NEURÈENÝ') ) ;
#88 = LINE ( 'NONE', #119, #128 ) ;
#89 = ORIENTED_EDGE ( 'NONE', *, *, #108, .T. ) ;
#90 = DIRECTION ( 'NONE',  ( 0.000000000000000000, 0.000000000000000000, 1.000000000000000000 ) ) ;
#91 = CARTESIAN_POINT ( 'NONE',  ( 0.000000000000000000, 0.000000000000000000, 5.000000000000000000 ) ) ;
#92 = FACE_OUTER_BOUND ( 'NONE', #117, .T. ) ;
#93 = ADVANCED_FACE ( 'NONE', ( #260 ), #44, .T. ) ;
#94 = AXIS2_PLACEMENT_3D ( 'NONE', #275, #211, #302 ) ;
#95 = DIRECTION ( 'NONE',  ( 0.000000000000000000, 0.000000000000000000, 1.000000000000000000 ) ) ;
#96 = DIRECTION ( 'NONE',  ( 1.000000000000000000, 0.000000000000000000, 0.000000000000000000 ) ) ;
#97 = CC_DESIGN_APPROVAL ( #57, ( #270 ) ) ;
#98 = DIRECTION ( 'NONE',  ( 0.000000000000000000, 0.000000000000000000, 1.000000000000000000 ) ) ;
#99 = CARTESIAN_POINT ( 'NONE',  ( 6.000000000000000888, 7.347880794884120722E-16, 5.000000000000000000 ) ) ;
#100 = LINE ( 'NONE', #50, #101 ) ;
#101 = VECTOR ( 'NONE', #217, 1000.000000000000000 ) ;
#102 = CC_DESIGN_SECURITY_CLASSIFICATION ( #240, ( #270 ) ) ;
#103 = PERSON_AND_ORGANIZATION ( #87, #56 ) ;
#104 = CC_DESIGN_DATE_AND_TIME_ASSIGNMENT ( #221, #12, ( #144 ) ) ;
#105 = ORIENTED_EDGE ( 'NONE', *, *, #277, .T. ) ;
#106 = PERSON_AND_ORGANIZATION ( #87, #56 ) ;
#107 = MECHANICAL_CONTEXT ( 'NONE', #75, 'mechanical' ) ;
#108 = EDGE_CURVE ( 'NONE', #137, #43, #49, .T. ) ;
#109 = ORIENTED_EDGE ( 'NONE', *, *, #71, .T. ) ;
#110 = DATE_TIME_ROLE ( 'classification_date' ) ;
#111 = EDGE_LOOP ( 'NONE', ( #234, #105 ) ) ;
#112 = CIRCLE ( 'NONE', #42, 0.1999999999999996503 ) ;
#113 = CARTESIAN_POINT ( 'NONE',  ( 0.000000000000000000, 0.000000000000000000, 5.000000000000000000 ) ) ;
#114 = APPROVAL_PERSON_ORGANIZATION ( #33, #228, #83 ) ;
#115 = DIRECTION ( 'NONE',  ( 1.000000000000000000, 0.000000000000000000, 0.000000000000000000 ) ) ;
#116 = CC_DESIGN_DATE_AND_TIME_ASSIGNMENT ( #206, #110, ( #240 ) ) ;
#117 = EDGE_LOOP ( 'NONE', ( #121, #294, #246, #301 ) ) ;
#118 = CIRCLE ( 'NONE', #160, 6.000000000000000888 ) ;
#119 = CARTESIAN_POINT ( 'NONE',  ( -3.100000000000000089, 0.000000000000000000, 405.0000000000000000 ) ) ;
#120 = CIRCLE ( 'NONE', #51, 3.299999999999999822 ) ;
#121 = ORIENTED_EDGE ( 'NONE', *, *, #108, .F. ) ;
#122 = ADVANCED_FACE ( 'NONE', ( #27 ), #151, .F. ) ;
#123 = CARTESIAN_POINT ( 'NONE',  ( 3.299999999999999822, 0.000000000000000000, 4.999999999999991118 ) ) ;
#124 = CARTESIAN_POINT ( 'NONE',  ( 0.000000000000000000, 0.000000000000000000, 5.000000000000000000 ) ) ;
#125 = DIRECTION ( 'NONE',  ( -0.000000000000000000, -0.000000000000000000, -1.000000000000000000 ) ) ;
#126 = CIRCLE ( 'NONE', #261, 6.000000000000000888 ) ;
#127 = DIRECTION ( 'NONE',  ( 1.000000000000000000, 0.000000000000000000, 0.000000000000000000 ) ) ;
#128 = VECTOR ( 'NONE', #163, 1000.000000000000000 ) ;
#129 = DIRECTION ( 'NONE',  ( 1.000000000000000000, 0.000000000000000000, 0.000000000000000000 ) ) ;
#130 =( NAMED_UNIT ( * ) SI_UNIT ( $, .STERADIAN. ) SOLID_ANGLE_UNIT ( ) );
#131 = EDGE_CURVE ( 'NONE', #55, #254, #155, .T. ) ;
#132 = TOROIDAL_SURFACE ( 'NONE', #29, 3.299999999999999822, 0.2000000000000000111 ) ;
#133 = CIRCLE ( 'NONE', #253, 6.000000000000000888 ) ;
#134 = COORDINATED_UNIVERSAL_TIME_OFFSET ( 1, 0, .AHEAD. ) ;
#135 = ORIENTED_EDGE ( 'NONE', *, *, #1, .T. ) ;
#136 = DATE_AND_TIME ( #204, #307 ) ;
#137 = VERTEX_POINT ( 'NONE', #287 ) ;
#138 = CARTESIAN_POINT ( 'NONE',  ( 0.000000000000000000, 0.000000000000000000, 0.000000000000000000 ) ) ;
#139 = AXIS2_PLACEMENT_3D ( 'NONE', #267, #150, #21 ) ;
#140 = LOCAL_TIME ( 12, 10, 55.00000000000000000, #290 ) ;
#141 = CARTESIAN_POINT ( 'NONE',  ( 3.299999999999999822, 0.000000000000000000, 5.199999999999982414 ) ) ;
#142 = MANIFOLD_SOLID_BREP ( 'Zaoblit1', #4 ) ;
#143 = DIRECTION ( 'NONE',  ( 0.000000000000000000, 0.000000000000000000, 1.000000000000000000 ) ) ;
#144 = PRODUCT_DEFINITION ( 'NEZNÁMÝ', '', #270, #174 ) ;
#145 = VERTEX_POINT ( 'NONE', #242 ) ;
#146 = CIRCLE ( 'NONE', #139, 3.299999999999999822 ) ;
#147 = DIRECTION ( 'NONE',  ( 0.000000000000000000, 0.000000000000000000, 1.000000000000000000 ) ) ;
#148 = DIRECTION ( 'NONE',  ( 1.000000000000000000, 0.000000000000000000, 0.000000000000000000 ) ) ;
#149 = CARTESIAN_POINT ( 'NONE',  ( -3.299999999999999822, 4.041334437186265510E-16, 5.199999999999982414 ) ) ;
#150 = DIRECTION ( 'NONE',  ( -0.000000000000000000, -0.000000000000000000, -1.000000000000000000 ) ) ;
#151 = PLANE ( 'NONE',  #288 ) ;
#152 = FACE_OUTER_BOUND ( 'NONE', #258, .T. ) ;
#153 = DIRECTION ( 'NONE',  ( 0.000000000000000000, 0.000000000000000000, 1.000000000000000000 ) ) ;
#154 = ORIENTED_EDGE ( 'NONE', *, *, #47, .T. ) ;
#155 = CIRCLE ( 'NONE', #45, 3.100000000000000089 ) ;
#156 = APPROVAL_DATE_TIME ( #80, #228 ) ;
#157 = CC_DESIGN_PERSON_AND_ORGANIZATION_ASSIGNMENT ( #30, #181, ( #220 ) ) ;
#158 = DIRECTION ( 'NONE',  ( 1.000000000000000000, 0.000000000000000000, 0.000000000000000000 ) ) ;
#159 = ORIENTED_EDGE ( 'NONE', *, *, #15, .F. ) ;
#160 = AXIS2_PLACEMENT_3D ( 'NONE', #214, #90, #186 ) ;
#161 = APPROVAL_STATUS ( 'not_yet_approved' ) ;
#162 = CARTESIAN_POINT ( 'NONE',  ( 0.000000000000000000, 0.000000000000000000, 405.0000000000000000 ) ) ;
#163 = DIRECTION ( 'NONE',  ( -0.000000000000000000, -0.000000000000000000, -1.000000000000000000 ) ) ;
#164 = FACE_OUTER_BOUND ( 'NONE', #34, .T. ) ;
#165 = ORIENTED_EDGE ( 'NONE', *, *, #303, .F. ) ;
#166 = DIRECTION ( 'NONE',  ( 1.000000000000000000, 0.000000000000000000, 0.000000000000000000 ) ) ;
#167 = CIRCLE ( 'NONE', #222, 0.2000000000000000944 ) ;
#168 = CARTESIAN_POINT ( 'NONE',  ( 6.000000000000000888, 7.347880794884120722E-16, 5.000000000000000000 ) ) ;
#169 = DIRECTION ( 'NONE',  ( -0.000000000000000000, -0.000000000000000000, -1.000000000000000000 ) ) ;
#170 = AXIS2_PLACEMENT_3D ( 'NONE', #113, #183, #282 ) ;
#171 = CARTESIAN_POINT ( 'NONE',  ( 0.000000000000000000, 0.000000000000000000, 405.0000000000000000 ) ) ;
#172 = DIRECTION ( 'NONE',  ( 0.000000000000000000, 0.000000000000000000, 1.000000000000000000 ) ) ;
#173 = DIRECTION ( 'NONE',  ( -1.000000000000000000, 1.224646799147353207E-16, 0.000000000000000000 ) ) ;
#174 = DESIGN_CONTEXT ( 'detailed design', #6, 'design' ) ;
#175 = ORIENTED_EDGE ( 'NONE', *, *, #281, .T. ) ;
#176 = PERSON_AND_ORGANIZATION ( #87, #56 ) ;
#177 = ORIENTED_EDGE ( 'NONE', *, *, #35, .F. ) ;
#178 = COORDINATED_UNIVERSAL_TIME_OFFSET ( 1, 0, .AHEAD. ) ;
#179 = PERSON_AND_ORGANIZATION_ROLE ( 'creator' ) ;
#180 = AXIS2_PLACEMENT_3D ( 'NONE', #138, #39, #64 ) ;
#181 = PERSON_AND_ORGANIZATION_ROLE ( 'design_owner' ) ;
#182 = VERTEX_POINT ( 'NONE', #99 ) ;
#183 = DIRECTION ( 'NONE',  ( -0.000000000000000000, -0.000000000000000000, -1.000000000000000000 ) ) ;
#184 = VERTEX_POINT ( 'NONE', #193 ) ;
#185 = AXIS2_PLACEMENT_3D ( 'NONE', #124, #46, #54 ) ;
#186 = DIRECTION ( 'NONE',  ( 1.000000000000000000, 0.000000000000000000, 0.000000000000000000 ) ) ;
#187 = ADVANCED_BREP_SHAPE_REPRESENTATION ( '88ca', ( #142, #284 ), #245 ) ;
#188 = CARTESIAN_POINT ( 'NONE',  ( 3.100000000000000089, 3.796405077356794918E-16, 405.0000000000000000 ) ) ;
#189 = FACE_OUTER_BOUND ( 'NONE', #17, .T. ) ;
#190 = CC_DESIGN_PERSON_AND_ORGANIZATION_ASSIGNMENT ( #196, #9, ( #240 ) ) ;
#191 = CARTESIAN_POINT ( 'NONE',  ( 0.000000000000000000, 0.000000000000000000, 405.0000000000000000 ) ) ;
#192 = FACE_BOUND ( 'NONE', #111, .T. ) ;
#193 = CARTESIAN_POINT ( 'NONE',  ( -6.000000000000000888, 0.000000000000000000, 0.000000000000000000 ) ) ;
#194 = ADVANCED_FACE ( 'NONE', ( #192, #262 ), #241, .T. ) ;
#195 = CARTESIAN_POINT ( 'NONE',  ( 0.000000000000000000, 0.000000000000000000, 0.000000000000000000 ) ) ;
#196 = PERSON_AND_ORGANIZATION ( #87, #56 ) ;
#197 = AXIS2_PLACEMENT_3D ( 'NONE', #162, #147, #236 ) ;
#198 = COORDINATED_UNIVERSAL_TIME_OFFSET ( 1, 0, .AHEAD. ) ;
#199 = ORIENTED_EDGE ( 'NONE', *, *, #259, .F. ) ;
#200 = PRODUCT_RELATED_PRODUCT_CATEGORY ( 'detail', '', ( #220 ) ) ;
#201 = PERSON_AND_ORGANIZATION ( #87, #56 ) ;
#202 = APPROVAL_PERSON_ORGANIZATION ( #176, #57, #13 ) ;
#203 = ORIENTED_EDGE ( 'NONE', *, *, #131, .F. ) ;
#204 = CALENDAR_DATE ( 2022, 7, 7 ) ;
#205 = VERTEX_POINT ( 'NONE', #76 ) ;
#206 = DATE_AND_TIME ( #227, #67 ) ;
#207 = EDGE_CURVE ( 'NONE', #254, #55, #210, .T. ) ;
#208 = PRODUCT_DEFINITION_SHAPE ( 'NONE', 'NONE',  #144 ) ;
#209 = ORIENTED_EDGE ( 'NONE', *, *, #71, .F. ) ;
#210 = CIRCLE ( 'NONE', #256, 3.100000000000000089 ) ;
#211 = DIRECTION ( 'NONE',  ( -0.000000000000000000, -0.000000000000000000, -1.000000000000000000 ) ) ;
#212 = EDGE_CURVE ( 'NONE', #205, #182, #126, .T. ) ;
#213 = ORIENTED_EDGE ( 'NONE', *, *, #207, .F. ) ;
#214 = CARTESIAN_POINT ( 'NONE',  ( 0.000000000000000000, 0.000000000000000000, 0.000000000000000000 ) ) ;
#215 = CARTESIAN_POINT ( 'NONE',  ( 3.100000000000000089, 3.796405077356794918E-16, 5.199999999999982414 ) ) ;
#216 = CARTESIAN_POINT ( 'NONE',  ( 0.000000000000000000, 0.000000000000000000, 5.199999999999982414 ) ) ;
#217 = DIRECTION ( 'NONE',  ( -0.000000000000000000, -0.000000000000000000, -1.000000000000000000 ) ) ;
#218 = DIRECTION ( 'NONE',  ( 0.000000000000000000, 0.000000000000000000, 1.000000000000000000 ) ) ;
#219 = DIRECTION ( 'NONE',  ( -0.000000000000000000, -0.000000000000000000, -1.000000000000000000 ) ) ;
#220 = PRODUCT ( '88ca', '88ca', '', ( #107 ) ) ;
#221 = DATE_AND_TIME ( #225, #24 ) ;
#222 = AXIS2_PLACEMENT_3D ( 'NONE', #149, #285, #173 ) ;
#223 = UNCERTAINTY_MEASURE_WITH_UNIT (LENGTH_MEASURE( 1.000000000000000082E-05 ), #272, 'distance_accuracy_value', 'NONE');
#224 = ORIENTED_EDGE ( 'NONE', *, *, #26, .T. ) ;
#225 = CALENDAR_DATE ( 2022, 7, 7 ) ;
#226 = AXIS2_PLACEMENT_3D ( 'NONE', #286, #219, #306 ) ;
#227 = CALENDAR_DATE ( 2022, 7, 7 ) ;
#228 = APPROVAL ( #161, 'NEURÈENÝ' ) ;
#229 = APPROVAL_DATE_TIME ( #244, #7 ) ;
#230 = EDGE_LOOP ( 'NONE', ( #177, #159 ) ) ;
#231 = LOCAL_TIME ( 12, 10, 55.00000000000000000, #198 ) ;
#232 = CC_DESIGN_APPROVAL ( #7, ( #240 ) ) ;
#233 = ORIENTED_EDGE ( 'NONE', *, *, #259, .T. ) ;
#234 = ORIENTED_EDGE ( 'NONE', *, *, #247, .T. ) ;
#235 = ORIENTED_EDGE ( 'NONE', *, *, #207, .T. ) ;
#236 = DIRECTION ( 'NONE',  ( 1.000000000000000000, 0.000000000000000000, -0.000000000000000000 ) ) ;
#237 = CC_DESIGN_PERSON_AND_ORGANIZATION_ASSIGNMENT ( #103, #179, ( #144 ) ) ;
#238 = DIRECTION ( 'NONE',  ( 0.000000000000000000, 0.000000000000000000, 1.000000000000000000 ) ) ;
#239 = DIRECTION ( 'NONE',  ( 0.000000000000000000, 0.000000000000000000, 1.000000000000000000 ) ) ;
#240 = SECURITY_CLASSIFICATION ( '', '', #82 ) ;
#241 = PLANE ( 'NONE',  #185 ) ;
#242 = CARTESIAN_POINT ( 'NONE',  ( 6.000000000000000888, 7.347880794884120722E-16, 0.000000000000000000 ) ) ;
#243 = CIRCLE ( 'NONE', #180, 6.000000000000000888 ) ;
#244 = DATE_AND_TIME ( #62, #140 ) ;
#245 =( GEOMETRIC_REPRESENTATION_CONTEXT ( 3 ) GLOBAL_UNCERTAINTY_ASSIGNED_CONTEXT ( ( #223 ) ) GLOBAL_UNIT_ASSIGNED_CONTEXT ( ( #272, #269, #130 ) ) REPRESENTATION_CONTEXT ( 'NONE', 'WORKASPACE' ) );
#246 = ORIENTED_EDGE ( 'NONE', *, *, #247, .F. ) ;
#247 = EDGE_CURVE ( 'NONE', #271, #296, #120, .T. ) ;
#248 = APPROVAL_STATUS ( 'not_yet_approved' ) ;
#249 = ADVANCED_FACE ( 'NONE', ( #266 ), #79, .T. ) ;
#250 = APPLICATION_PROTOCOL_DEFINITION ( 'international standard', 'config_control_design', 1994, #75 ) ;
#251 = SHAPE_DEFINITION_REPRESENTATION ( #208, #187 ) ;
#252 = EDGE_LOOP ( 'NONE', ( #85, #109 ) ) ;
#253 = AXIS2_PLACEMENT_3D ( 'NONE', #91, #70, #166 ) ;
#254 = VERTEX_POINT ( 'NONE', #5 ) ;
#255 = CYLINDRICAL_SURFACE ( 'NONE', #170, 6.000000000000000888 ) ;
#256 = AXIS2_PLACEMENT_3D ( 'NONE', #171, #172, #148 ) ;
#257 = CYLINDRICAL_SURFACE ( 'NONE', #94, 3.100000000000000089 ) ;
#258 = EDGE_LOOP ( 'NONE', ( #63, #36, #154, #274 ) ) ;
#259 = EDGE_CURVE ( 'NONE', #205, #184, #100, .T. ) ;
#260 = FACE_OUTER_BOUND ( 'NONE', #300, .T. ) ;
#261 = AXIS2_PLACEMENT_3D ( 'NONE', #78, #238, #265 ) ;
#262 = FACE_OUTER_BOUND ( 'NONE', #252, .T. ) ;
#263 = DIRECTION ( 'NONE',  ( -1.000000000000000000, 0.000000000000000000, 0.000000000000000000 ) ) ;
#264 = EDGE_CURVE ( 'NONE', #137, #296, #167, .T. ) ;
#265 = DIRECTION ( 'NONE',  ( 1.000000000000000000, 0.000000000000000000, 0.000000000000000000 ) ) ;
#266 = FACE_OUTER_BOUND ( 'NONE', #278, .T. ) ;
#267 = CARTESIAN_POINT ( 'NONE',  ( 0.000000000000000000, 0.000000000000000000, 5.000000000000000000 ) ) ;
#268 = ORIENTED_EDGE ( 'NONE', *, *, #212, .F. ) ;
#269 =( NAMED_UNIT ( * ) PLANE_ANGLE_UNIT ( ) SI_UNIT ( $, .RADIAN. ) );
#270 = PRODUCT_DEFINITION_FORMATION_WITH_SPECIFIED_SOURCE ( 'LIBOVOLNÝ', '', #220, .NOT_KNOWN. ) ;
#271 = VERTEX_POINT ( 'NONE', #123 ) ;
#272 =( LENGTH_UNIT ( ) NAMED_UNIT ( * ) SI_UNIT ( .MILLI., .METRE. ) );
#273 = APPROVAL_ROLE ( '' ) ;
#274 = ORIENTED_EDGE ( 'NONE', *, *, #277, .F. ) ;
#275 = CARTESIAN_POINT ( 'NONE',  ( 0.000000000000000000, 0.000000000000000000, 405.0000000000000000 ) ) ;
#276 = TOROIDAL_SURFACE ( 'NONE', #28, 3.299999999999999822, 0.2000000000000000111 ) ;
#277 = EDGE_CURVE ( 'NONE', #296, #271, #146, .T. ) ;
#278 = EDGE_LOOP ( 'NONE', ( #209, #37, #18, #199 ) ) ;
#279 = ORIENTED_EDGE ( 'NONE', *, *, #26, .F. ) ;
#280 = DIRECTION ( 'NONE',  ( -0.000000000000000000, -0.000000000000000000, -1.000000000000000000 ) ) ;
#281 = EDGE_CURVE ( 'NONE', #43, #137, #8, .T. ) ;
#282 = DIRECTION ( 'NONE',  ( -1.000000000000000000, 0.000000000000000000, 0.000000000000000000 ) ) ;
#283 = LINE ( 'NONE', #168, #73 ) ;
#284 = AXIS2_PLACEMENT_3D ( 'NONE', #10, #153, #158 ) ;
#285 = DIRECTION ( 'NONE',  ( 1.224646799147353207E-16, 1.000000000000000000, -0.000000000000000000 ) ) ;
#286 = CARTESIAN_POINT ( 'NONE',  ( 0.000000000000000000, 0.000000000000000000, 5.000000000000000000 ) ) ;
#287 = CARTESIAN_POINT ( 'NONE',  ( -3.100000000000000089, 0.000000000000000000, 5.199999999999982414 ) ) ;
#288 = AXIS2_PLACEMENT_3D ( 'NONE', #195, #98, #3 ) ;
#289 = DIRECTION ( 'NONE',  ( -0.000000000000000000, -0.000000000000000000, -1.000000000000000000 ) ) ;
#290 = COORDINATED_UNIVERSAL_TIME_OFFSET ( 1, 0, .AHEAD. ) ;
#291 = AXIS2_PLACEMENT_3D ( 'NONE', #23, #169, #263 ) ;
#292 = PERSON_AND_ORGANIZATION_ROLE ( 'design_supplier' ) ;
#293 = ADVANCED_FACE ( 'NONE', ( #152 ), #132, .F. ) ;
#294 = ORIENTED_EDGE ( 'NONE', *, *, #264, .T. ) ;
#295 = APPROVAL_DATE_TIME ( #136, #57 ) ;
#296 = VERTEX_POINT ( 'NONE', #305 ) ;
#297 = PERSON_AND_ORGANIZATION ( #87, #56 ) ;
#298 = EDGE_LOOP ( 'NONE', ( #165, #268, #233, #69 ) ) ;
#299 = ADVANCED_FACE ( 'NONE', ( #189 ), #74, .T. ) ;
#300 = EDGE_LOOP ( 'NONE', ( #235, #14 ) ) ;
#301 = ORIENTED_EDGE ( 'NONE', *, *, #47, .F. ) ;
#302 = DIRECTION ( 'NONE',  ( -1.000000000000000000, 0.000000000000000000, 0.000000000000000000 ) ) ;
#303 = EDGE_CURVE ( 'NONE', #182, #145, #283, .T. ) ;
#304 = DIRECTION ( 'NONE',  ( 0.000000000000000000, -1.000000000000000000, 0.000000000000000000 ) ) ;
#305 = CARTESIAN_POINT ( 'NONE',  ( -3.299999999999999822, 4.041334437186265510E-16, 4.999999999999991118 ) ) ;
#306 = DIRECTION ( 'NONE',  ( -1.000000000000000000, 0.000000000000000000, 0.000000000000000000 ) ) ;
#307 = LOCAL_TIME ( 12, 10, 55.00000000000000000, #31 ) ;
ENDSEC;
END-ISO-10303-21;
