ISO-10303-21;
HEADER;
FILE_DESCRIPTION (( 'STEP AP203' ),
    '1' );
FILE_NAME ('ccdb.STEP',
    '2022-07-07T09:49:01',
    ( '' ),
    ( '' ),
    'SwSTEP 2.0',
    'SolidWorks 2019',
    '' );
FILE_SCHEMA (( 'CONFIG_CONTROL_DESIGN' ));
ENDSEC;

DATA;
#1 = DIRECTION ( 'NONE',  ( 0.000000000000000000, 0.000000000000000000, 1.000000000000000000 ) ) ;
#2 = DIRECTION ( 'NONE',  ( 1.000000000000000000, 0.000000000000000000, 0.000000000000000000 ) ) ;
#3 = AXIS2_PLACEMENT_3D ( 'NONE', #107, #56, #10 ) ;
#4 = DIRECTION ( 'NONE',  ( 0.000000000000000000, 0.000000000000000000, 1.000000000000000000 ) ) ;
#5 = APPLICATION_CONTEXT ( 'configuration controlled 3d designs of mechanical parts and assemblies' ) ;
#6 = LOCAL_TIME ( 11, 49, 1.000000000000000000, #302 ) ;
#7 = ORIENTED_EDGE ( 'NONE', *, *, #158, .T. ) ;
#8 = ORIENTED_EDGE ( 'NONE', *, *, #158, .F. ) ;
#9 = FACE_OUTER_BOUND ( 'NONE', #288, .T. ) ;
#10 = DIRECTION ( 'NONE',  ( 1.000000000000000000, 0.000000000000000000, 0.000000000000000000 ) ) ;
#11 = DIRECTION ( 'NONE',  ( 0.000000000000000000, 0.000000000000000000, 1.000000000000000000 ) ) ;
#12 = DIRECTION ( 'NONE',  ( -0.000000000000000000, -0.000000000000000000, -1.000000000000000000 ) ) ;
#13 = CARTESIAN_POINT ( 'NONE',  ( 0.000000000000000000, 0.000000000000000000, 205.0000000000000284 ) ) ;
#14 = CALENDAR_DATE ( 2022, 7, 7 ) ;
#15 =( GEOMETRIC_REPRESENTATION_CONTEXT ( 3 ) GLOBAL_UNCERTAINTY_ASSIGNED_CONTEXT ( ( #29 ) ) GLOBAL_UNIT_ASSIGNED_CONTEXT ( ( #140, #276, #228 ) ) REPRESENTATION_CONTEXT ( 'NONE', 'WORKASPACE' ) );
#16 = PERSON_AND_ORGANIZATION_ROLE ( 'design_owner' ) ;
#17 = ORIENTED_EDGE ( 'NONE', *, *, #99, .T. ) ;
#18 = DIRECTION ( 'NONE',  ( 0.000000000000000000, 0.000000000000000000, 1.000000000000000000 ) ) ;
#19 = FACE_OUTER_BOUND ( 'NONE', #73, .T. ) ;
#20 = LINE ( 'NONE', #92, #267 ) ;
#21 = CARTESIAN_POINT ( 'NONE',  ( -8.000000000000000000, 0.000000000000000000, 0.000000000000000000 ) ) ;
#22 = DIRECTION ( 'NONE',  ( 1.000000000000000000, 0.000000000000000000, 0.000000000000000000 ) ) ;
#23 = CC_DESIGN_PERSON_AND_ORGANIZATION_ASSIGNMENT ( #305, #189, ( #44 ) ) ;
#24 = ORIENTED_EDGE ( 'NONE', *, *, #67, .F. ) ;
#25 = LOCAL_TIME ( 11, 49, 1.000000000000000000, #137 ) ;
#26 = AXIS2_PLACEMENT_3D ( 'NONE', #212, #1, #168 ) ;
#27 = AXIS2_PLACEMENT_3D ( 'NONE', #227, #12, #182 ) ;
#28 = ORIENTED_EDGE ( 'NONE', *, *, #216, .T. ) ;
#29 = UNCERTAINTY_MEASURE_WITH_UNIT (LENGTH_MEASURE( 1.000000000000000082E-05 ), #140, 'distance_accuracy_value', 'NONE');
#30 = ORIENTED_EDGE ( 'NONE', *, *, #268, .T. ) ;
#31 = DIRECTION ( 'NONE',  ( 0.000000000000000000, 0.000000000000000000, 1.000000000000000000 ) ) ;
#32 = CARTESIAN_POINT ( 'NONE',  ( 5.500000000000000000, 6.735557395310442023E-16, 5.200000000000009948 ) ) ;
#33 = CYLINDRICAL_SURFACE ( 'NONE', #27, 5.500000000000000000 ) ;
#34 = DIRECTION ( 'NONE',  ( -0.000000000000000000, -0.000000000000000000, -1.000000000000000000 ) ) ;
#35 = LINE ( 'NONE', #222, #104 ) ;
#36 = DATE_AND_TIME ( #255, #258 ) ;
#37 = AXIS2_PLACEMENT_3D ( 'NONE', #278, #11, #162 ) ;
#38 = DIRECTION ( 'NONE',  ( -1.000000000000000000, 0.000000000000000000, 0.000000000000000000 ) ) ;
#39 = DATE_AND_TIME ( #14, #25 ) ;
#40 = APPROVAL_DATE_TIME ( #79, #225 ) ;
#41 = ORIENTED_EDGE ( 'NONE', *, *, #174, .T. ) ;
#42 = CARTESIAN_POINT ( 'NONE',  ( 0.000000000000000000, 0.000000000000000000, 205.0000000000000284 ) ) ;
#43 = TOROIDAL_SURFACE ( 'NONE', #93, 5.699999999999999289, 0.2000000000000000111 ) ;
#44 = SECURITY_CLASSIFICATION ( '', '', #303 ) ;
#45 = CARTESIAN_POINT ( 'NONE',  ( 5.699999999999999289, 0.000000000000000000, 5.000000000000005329 ) ) ;
#46 = ORIENTED_EDGE ( 'NONE', *, *, #99, .F. ) ;
#47 = CC_DESIGN_PERSON_AND_ORGANIZATION_ASSIGNMENT ( #208, #16, ( #193 ) ) ;
#48 = CARTESIAN_POINT ( 'NONE',  ( -5.699999999999999289, 6.980486755139912122E-16, 5.200000000000009948 ) ) ;
#49 = APPROVAL_PERSON_ORGANIZATION ( #88, #170, #58 ) ;
#50 = VERTEX_POINT ( 'NONE', #45 ) ;
#51 = CIRCLE ( 'NONE', #3, 8.000000000000000000 ) ;
#52 = ORIENTED_EDGE ( 'NONE', *, *, #174, .F. ) ;
#53 = DIRECTION ( 'NONE',  ( 0.000000000000000000, 0.000000000000000000, 1.000000000000000000 ) ) ;
#54 = ORIENTED_EDGE ( 'NONE', *, *, #172, .F. ) ;
#55 = FACE_OUTER_BOUND ( 'NONE', #74, .T. ) ;
#56 = DIRECTION ( 'NONE',  ( 0.000000000000000000, 0.000000000000000000, 1.000000000000000000 ) ) ;
#57 = CARTESIAN_POINT ( 'NONE',  ( 5.500000000000000000, 6.735557395310442023E-16, 205.0000000000000284 ) ) ;
#58 = APPROVAL_ROLE ( '' ) ;
#59 = APPROVAL_ROLE ( '' ) ;
#60 = PERSON_AND_ORGANIZATION_ROLE ( 'design_supplier' ) ;
#61 = ADVANCED_FACE ( 'NONE', ( #146 ), #231, .F. ) ;
#62 = CIRCLE ( 'NONE', #270, 5.500000000000000000 ) ;
#63 = CARTESIAN_POINT ( 'NONE',  ( 0.000000000000000000, 0.000000000000000000, 5.000000000000000000 ) ) ;
#64 = PLANE ( 'NONE',  #306 ) ;
#65 = DIRECTION ( 'NONE',  ( 1.000000000000000000, 0.000000000000000000, 0.000000000000000000 ) ) ;
#66 = AXIS2_PLACEMENT_3D ( 'NONE', #75, #157, #293 ) ;
#67 = EDGE_CURVE ( 'NONE', #295, #50, #151, .T. ) ;
#68 = ORIENTED_EDGE ( 'NONE', *, *, #72, .T. ) ;
#69 = APPROVAL_PERSON_ORGANIZATION ( #109, #225, #299 ) ;
#70 = ORIENTED_EDGE ( 'NONE', *, *, #97, .F. ) ;
#71 = CC_DESIGN_PERSON_AND_ORGANIZATION_ASSIGNMENT ( #301, #60, ( #98 ) ) ;
#72 = EDGE_CURVE ( 'NONE', #292, #295, #144, .T. ) ;
#73 = EDGE_LOOP ( 'NONE', ( #52, #265, #269, #17 ) ) ;
#74 = EDGE_LOOP ( 'NONE', ( #8, #218, #197, #283 ) ) ;
#75 = CARTESIAN_POINT ( 'NONE',  ( 0.000000000000000000, 0.000000000000000000, 0.000000000000000000 ) ) ;
#76 = VERTEX_POINT ( 'NONE', #236 ) ;
#77 = CYLINDRICAL_SURFACE ( 'NONE', #205, 8.000000000000000000 ) ;
#78 = DIRECTION ( 'NONE',  ( 1.000000000000000000, 0.000000000000000000, 0.000000000000000000 ) ) ;
#79 = DATE_AND_TIME ( #183, #136 ) ;
#80 = EDGE_CURVE ( 'NONE', #127, #115, #20, .T. ) ;
#81 = CYLINDRICAL_SURFACE ( 'NONE', #195, 5.500000000000000000 ) ;
#82 = COORDINATED_UNIVERSAL_TIME_OFFSET ( 1, 0, .AHEAD. ) ;
#83 = CC_DESIGN_APPROVAL ( #225, ( #116 ) ) ;
#84 = APPROVAL_STATUS ( 'not_yet_approved' ) ;
#85 = DATE_AND_TIME ( #161, #6 ) ;
#86 = ORIENTED_EDGE ( 'NONE', *, *, #67, .T. ) ;
#87 = DIRECTION ( 'NONE',  ( 1.000000000000000000, 0.000000000000000000, 0.000000000000000000 ) ) ;
#88 = PERSON_AND_ORGANIZATION ( #125, #277 ) ;
#89 = CARTESIAN_POINT ( 'NONE',  ( 0.000000000000000000, 0.000000000000000000, 5.000000000000000000 ) ) ;
#90 = EDGE_LOOP ( 'NONE', ( #54, #41, #28, #126 ) ) ;
#91 = DIRECTION ( 'NONE',  ( 0.000000000000000000, 0.000000000000000000, 1.000000000000000000 ) ) ;
#92 = CARTESIAN_POINT ( 'NONE',  ( -8.000000000000000000, 0.000000000000000000, 5.000000000000000000 ) ) ;
#93 = AXIS2_PLACEMENT_3D ( 'NONE', #213, #117, #196 ) ;
#94 = AXIS2_PLACEMENT_3D ( 'NONE', #110, #53, #179 ) ;
#95 = ORIENTED_EDGE ( 'NONE', *, *, #150, .T. ) ;
#96 = ADVANCED_FACE ( 'NONE', ( #122 ), #43, .F. ) ;
#97 = EDGE_CURVE ( 'NONE', #50, #295, #223, .T. ) ;
#98 = PRODUCT_DEFINITION_FORMATION_WITH_SPECIFIED_SOURCE ( 'LIBOVOLNÝ', '', #193, .NOT_KNOWN. ) ;
#99 = EDGE_CURVE ( 'NONE', #115, #156, #130, .T. ) ;
#100 = DESIGN_CONTEXT ( 'detailed design', #5, 'design' ) ;
#101 = ORIENTED_EDGE ( 'NONE', *, *, #266, .T. ) ;
#102 = DIRECTION ( 'NONE',  ( -1.000000000000000000, 0.000000000000000000, 0.000000000000000000 ) ) ;
#103 = APPLICATION_CONTEXT ( 'configuration controlled 3d designs of mechanical parts and assemblies' ) ;
#104 = VECTOR ( 'NONE', #178, 1000.000000000000000 ) ;
#105 = EDGE_LOOP ( 'NONE', ( #46, #175 ) ) ;
#106 = CARTESIAN_POINT ( 'NONE',  ( 8.000000000000000000, 9.797174393178825657E-16, 0.000000000000000000 ) ) ;
#107 = CARTESIAN_POINT ( 'NONE',  ( 0.000000000000000000, 0.000000000000000000, 5.000000000000000000 ) ) ;
#108 = FACE_OUTER_BOUND ( 'NONE', #90, .T. ) ;
#109 = PERSON_AND_ORGANIZATION ( #125, #277 ) ;
#110 = CARTESIAN_POINT ( 'NONE',  ( 0.000000000000000000, 0.000000000000000000, 0.000000000000000000 ) ) ;
#111 = CIRCLE ( 'NONE', #37, 5.500000000000000000 ) ;
#112 = PERSON_AND_ORGANIZATION_ROLE ( 'creator' ) ;
#113 = CYLINDRICAL_SURFACE ( 'NONE', #155, 8.000000000000000000 ) ;
#114 = ADVANCED_FACE ( 'NONE', ( #259 ), #64, .T. ) ;
#115 = VERTEX_POINT ( 'NONE', #21 ) ;
#116 = PRODUCT_DEFINITION ( 'NEZNÁMÝ', '', #98, #100 ) ;
#117 = DIRECTION ( 'NONE',  ( 0.000000000000000000, 0.000000000000000000, 1.000000000000000000 ) ) ;
#118 = AXIS2_PLACEMENT_3D ( 'NONE', #48, #241, #263 ) ;
#119 = AXIS2_PLACEMENT_3D ( 'NONE', #13, #18, #87 ) ;
#120 = FACE_BOUND ( 'NONE', #141, .T. ) ;
#121 = DIRECTION ( 'NONE',  ( -0.000000000000000000, -0.000000000000000000, -1.000000000000000000 ) ) ;
#122 = FACE_OUTER_BOUND ( 'NONE', #273, .T. ) ;
#123 = AXIS2_PLACEMENT_3D ( 'NONE', #201, #31, #275 ) ;
#124 = ADVANCED_FACE ( 'NONE', ( #120, #285 ), #262, .T. ) ;
#125 = PERSON ( 'NEURÈENÝ', 'NEURÈENÝ', 'NEURÈENÝ', ('NEURÈENÝ'), ('NEURÈENÝ'), ('NEURÈENÝ') ) ;
#126 = ORIENTED_EDGE ( 'NONE', *, *, #80, .F. ) ;
#127 = VERTEX_POINT ( 'NONE', #159 ) ;
#128 = VERTEX_POINT ( 'NONE', #32 ) ;
#129 = DIRECTION ( 'NONE',  ( -0.000000000000000000, -0.000000000000000000, -1.000000000000000000 ) ) ;
#130 = CIRCLE ( 'NONE', #260, 8.000000000000000000 ) ;
#131 = CARTESIAN_POINT ( 'NONE',  ( 8.000000000000000000, 9.797174393178825657E-16, 5.000000000000000000 ) ) ;
#132 = CARTESIAN_POINT ( 'NONE',  ( -5.500000000000000000, 0.000000000000000000, 205.0000000000000284 ) ) ;
#133 = CARTESIAN_POINT ( 'NONE',  ( 5.699999999999999289, 0.000000000000000000, 5.200000000000009948 ) ) ;
#134 = APPROVAL ( #84, 'NEURÈENÝ' ) ;
#135 = APPROVAL_DATE_TIME ( #36, #134 ) ;
#136 = LOCAL_TIME ( 11, 49, 1.000000000000000000, #304 ) ;
#137 = COORDINATED_UNIVERSAL_TIME_OFFSET ( 1, 0, .AHEAD. ) ;
#138 = APPLICATION_PROTOCOL_DEFINITION ( 'international standard', 'config_control_design', 1994, #103 ) ;
#139 = DATE_TIME_ROLE ( 'classification_date' ) ;
#140 =( LENGTH_UNIT ( ) NAMED_UNIT ( * ) SI_UNIT ( .MILLI., .METRE. ) );
#141 = EDGE_LOOP ( 'NONE', ( #245, #86 ) ) ;
#142 = EDGE_CURVE ( 'NONE', #292, #128, #286, .T. ) ;
#143 = CARTESIAN_POINT ( 'NONE',  ( 0.000000000000000000, 0.000000000000000000, 5.000000000000000000 ) ) ;
#144 = CIRCLE ( 'NONE', #118, 0.1999999999999996503 ) ;
#145 = CIRCLE ( 'NONE', #119, 5.500000000000000000 ) ;
#146 = FACE_OUTER_BOUND ( 'NONE', #290, .T. ) ;
#147 = ADVANCED_FACE ( 'NONE', ( #55 ), #81, .T. ) ;
#148 = VERTEX_POINT ( 'NONE', #132 ) ;
#149 = PRODUCT_RELATED_PRODUCT_CATEGORY ( 'detail', '', ( #193 ) ) ;
#150 = EDGE_CURVE ( 'NONE', #127, #173, #51, .T. ) ;
#151 = CIRCLE ( 'NONE', #238, 5.699999999999999289 ) ;
#152 = CIRCLE ( 'NONE', #181, 0.1999999999999996503 ) ;
#153 = CC_DESIGN_DATE_AND_TIME_ASSIGNMENT ( #85, #252, ( #116 ) ) ;
#154 = EDGE_LOOP ( 'NONE', ( #95, #271 ) ) ;
#155 = AXIS2_PLACEMENT_3D ( 'NONE', #89, #34, #38 ) ;
#156 = VERTEX_POINT ( 'NONE', #106 ) ;
#157 = DIRECTION ( 'NONE',  ( 0.000000000000000000, 0.000000000000000000, 1.000000000000000000 ) ) ;
#158 = EDGE_CURVE ( 'NONE', #76, #148, #62, .T. ) ;
#159 = CARTESIAN_POINT ( 'NONE',  ( -8.000000000000000000, 0.000000000000000000, 5.000000000000000000 ) ) ;
#160 = DIRECTION ( 'NONE',  ( -0.000000000000000000, -0.000000000000000000, -1.000000000000000000 ) ) ;
#161 = CALENDAR_DATE ( 2022, 7, 7 ) ;
#162 = DIRECTION ( 'NONE',  ( 1.000000000000000000, 0.000000000000000000, 0.000000000000000000 ) ) ;
#163 = COORDINATED_UNIVERSAL_TIME_OFFSET ( 1, 0, .AHEAD. ) ;
#164 = LOCAL_TIME ( 11, 49, 1.000000000000000000, #82 ) ;
#165 = DIRECTION ( 'NONE',  ( 0.000000000000000000, 0.000000000000000000, 1.000000000000000000 ) ) ;
#166 = CARTESIAN_POINT ( 'NONE',  ( 0.000000000000000000, 0.000000000000000000, 0.000000000000000000 ) ) ;
#167 = DIRECTION ( 'NONE',  ( 0.000000000000000000, 0.000000000000000000, 1.000000000000000000 ) ) ;
#168 = DIRECTION ( 'NONE',  ( 1.000000000000000000, 0.000000000000000000, -0.000000000000000000 ) ) ;
#169 = AXIS2_PLACEMENT_3D ( 'NONE', #204, #165, #190 ) ;
#170 = APPROVAL ( #203, 'NEURÈENÝ' ) ;
#171 = ORIENTED_EDGE ( 'NONE', *, *, #284, .T. ) ;
#172 = EDGE_CURVE ( 'NONE', #173, #127, #282, .T. ) ;
#173 = VERTEX_POINT ( 'NONE', #131 ) ;
#174 = EDGE_CURVE ( 'NONE', #173, #156, #251, .T. ) ;
#175 = ORIENTED_EDGE ( 'NONE', *, *, #216, .F. ) ;
#176 = FACE_OUTER_BOUND ( 'NONE', #105, .T. ) ;
#177 = MANIFOLD_SOLID_BREP ( 'Zaoblit1', #242 ) ;
#178 = DIRECTION ( 'NONE',  ( -0.000000000000000000, -0.000000000000000000, -1.000000000000000000 ) ) ;
#179 = DIRECTION ( 'NONE',  ( 1.000000000000000000, 0.000000000000000000, -0.000000000000000000 ) ) ;
#180 = PERSON_AND_ORGANIZATION_ROLE ( 'creator' ) ;
#181 = AXIS2_PLACEMENT_3D ( 'NONE', #133, #229, #198 ) ;
#182 = DIRECTION ( 'NONE',  ( -1.000000000000000000, 0.000000000000000000, 0.000000000000000000 ) ) ;
#183 = CALENDAR_DATE ( 2022, 7, 7 ) ;
#184 = ORIENTED_EDGE ( 'NONE', *, *, #142, .T. ) ;
#185 = APPLICATION_PROTOCOL_DEFINITION ( 'international standard', 'config_control_design', 1994, #5 ) ;
#186 = AXIS2_PLACEMENT_3D ( 'NONE', #240, #4, #22 ) ;
#187 = APPROVAL_PERSON_ORGANIZATION ( #235, #134, #59 ) ;
#188 = ADVANCED_FACE ( 'NONE', ( #176 ), #226, .F. ) ;
#189 = PERSON_AND_ORGANIZATION_ROLE ( 'classification_officer' ) ;
#190 = DIRECTION ( 'NONE',  ( 1.000000000000000000, 0.000000000000000000, 0.000000000000000000 ) ) ;
#191 = DIRECTION ( 'NONE',  ( 1.000000000000000000, 0.000000000000000000, 0.000000000000000000 ) ) ;
#192 = DIRECTION ( 'NONE',  ( -0.000000000000000000, -0.000000000000000000, -1.000000000000000000 ) ) ;
#193 = PRODUCT ( 'ccdb', 'ccdb', '', ( #257 ) ) ;
#194 = DIRECTION ( 'NONE',  ( -0.000000000000000000, -0.000000000000000000, -1.000000000000000000 ) ) ;
#195 = AXIS2_PLACEMENT_3D ( 'NONE', #253, #160, #221 ) ;
#196 = DIRECTION ( 'NONE',  ( 1.000000000000000000, 0.000000000000000000, 0.000000000000000000 ) ) ;
#197 = ORIENTED_EDGE ( 'NONE', *, *, #250, .T. ) ;
#198 = DIRECTION ( 'NONE',  ( 0.000000000000000000, 0.000000000000000000, -1.000000000000000000 ) ) ;
#199 = CC_DESIGN_APPROVAL ( #170, ( #44 ) ) ;
#200 = CARTESIAN_POINT ( 'NONE',  ( 8.000000000000000000, 9.797174393178825657E-16, 5.000000000000000000 ) ) ;
#201 = CARTESIAN_POINT ( 'NONE',  ( 0.000000000000000000, 0.000000000000000000, 5.200000000000009948 ) ) ;
#202 = CARTESIAN_POINT ( 'NONE',  ( 0.000000000000000000, 0.000000000000000000, 5.000000000000000000 ) ) ;
#203 = APPROVAL_STATUS ( 'not_yet_approved' ) ;
#204 = CARTESIAN_POINT ( 'NONE',  ( 0.000000000000000000, 0.000000000000000000, 0.000000000000000000 ) ) ;
#205 = AXIS2_PLACEMENT_3D ( 'NONE', #202, #300, #102 ) ;
#206 = DIRECTION ( 'NONE',  ( 0.000000000000000000, 0.000000000000000000, 1.000000000000000000 ) ) ;
#207 = SHAPE_DEFINITION_REPRESENTATION ( #246, #264 ) ;
#208 = PERSON_AND_ORGANIZATION ( #125, #277 ) ;
#209 = CALENDAR_DATE ( 2022, 7, 7 ) ;
#210 = VECTOR ( 'NONE', #249, 1000.000000000000000 ) ;
#211 = ORIENTED_EDGE ( 'NONE', *, *, #284, .F. ) ;
#212 = CARTESIAN_POINT ( 'NONE',  ( 0.000000000000000000, 0.000000000000000000, 5.000000000000000000 ) ) ;
#213 = CARTESIAN_POINT ( 'NONE',  ( 0.000000000000000000, 0.000000000000000000, 5.200000000000009948 ) ) ;
#214 = ADVANCED_FACE ( 'NONE', ( #9 ), #33, .T. ) ;
#215 = ORIENTED_EDGE ( 'NONE', *, *, #250, .F. ) ;
#216 = EDGE_CURVE ( 'NONE', #156, #115, #243, .T. ) ;
#217 = AXIS2_PLACEMENT_3D ( 'NONE', #63, #194, #191 ) ;
#218 = ORIENTED_EDGE ( 'NONE', *, *, #256, .T. ) ;
#219 = CC_DESIGN_DATE_AND_TIME_ASSIGNMENT ( #254, #139, ( #44 ) ) ;
#220 = ORIENTED_EDGE ( 'NONE', *, *, #72, .F. ) ;
#221 = DIRECTION ( 'NONE',  ( -1.000000000000000000, 0.000000000000000000, 0.000000000000000000 ) ) ;
#222 = CARTESIAN_POINT ( 'NONE',  ( -5.500000000000000000, 0.000000000000000000, 205.0000000000000284 ) ) ;
#223 = CIRCLE ( 'NONE', #217, 5.699999999999999289 ) ;
#224 = CC_DESIGN_SECURITY_CLASSIFICATION ( #44, ( #98 ) ) ;
#225 = APPROVAL ( #233, 'NEURÈENÝ' ) ;
#226 = PLANE ( 'NONE',  #94 ) ;
#227 = CARTESIAN_POINT ( 'NONE',  ( 0.000000000000000000, 0.000000000000000000, 205.0000000000000284 ) ) ;
#228 =( NAMED_UNIT ( * ) SI_UNIT ( $, .STERADIAN. ) SOLID_ANGLE_UNIT ( ) );
#229 = DIRECTION ( 'NONE',  ( 0.000000000000000000, -1.000000000000000000, 0.000000000000000000 ) ) ;
#230 = CARTESIAN_POINT ( 'NONE',  ( -5.699999999999999289, 6.980486755139912122E-16, 5.000000000000005329 ) ) ;
#231 = TOROIDAL_SURFACE ( 'NONE', #186, 5.699999999999999289, 0.2000000000000000111 ) ;
#232 = AXIS2_PLACEMENT_3D ( 'NONE', #298, #248, #78 ) ;
#233 = APPROVAL_STATUS ( 'not_yet_approved' ) ;
#234 = PERSON_AND_ORGANIZATION ( #125, #277 ) ;
#235 = PERSON_AND_ORGANIZATION ( #125, #277 ) ;
#236 = CARTESIAN_POINT ( 'NONE',  ( 5.500000000000000000, 6.735557395310442023E-16, 205.0000000000000284 ) ) ;
#237 = APPROVAL_DATE_TIME ( #39, #170 ) ;
#238 = AXIS2_PLACEMENT_3D ( 'NONE', #143, #121, #2 ) ;
#239 = DIRECTION ( 'NONE',  ( 1.000000000000000000, 0.000000000000000000, -0.000000000000000000 ) ) ;
#240 = CARTESIAN_POINT ( 'NONE',  ( 0.000000000000000000, 0.000000000000000000, 5.200000000000009948 ) ) ;
#241 = DIRECTION ( 'NONE',  ( 1.224646799147353207E-16, 1.000000000000000000, -0.000000000000000000 ) ) ;
#242 = CLOSED_SHELL ( 'NONE', ( #96, #147, #244, #297, #124, #188, #214, #114, #61 ) ) ;
#243 = CIRCLE ( 'NONE', #66, 8.000000000000000000 ) ;
#244 = ADVANCED_FACE ( 'NONE', ( #108 ), #77, .T. ) ;
#245 = ORIENTED_EDGE ( 'NONE', *, *, #97, .T. ) ;
#246 = PRODUCT_DEFINITION_SHAPE ( 'NONE', 'NONE',  #116 ) ;
#247 = ORIENTED_EDGE ( 'NONE', *, *, #142, .F. ) ;
#248 = DIRECTION ( 'NONE',  ( 0.000000000000000000, 0.000000000000000000, 1.000000000000000000 ) ) ;
#249 = DIRECTION ( 'NONE',  ( -0.000000000000000000, -0.000000000000000000, -1.000000000000000000 ) ) ;
#250 = EDGE_CURVE ( 'NONE', #128, #292, #111, .T. ) ;
#251 = LINE ( 'NONE', #200, #210 ) ;
#252 = DATE_TIME_ROLE ( 'creation_date' ) ;
#253 = CARTESIAN_POINT ( 'NONE',  ( 0.000000000000000000, 0.000000000000000000, 205.0000000000000284 ) ) ;
#254 = DATE_AND_TIME ( #209, #164 ) ;
#255 = CALENDAR_DATE ( 2022, 7, 7 ) ;
#256 = EDGE_CURVE ( 'NONE', #76, #128, #274, .T. ) ;
#257 = MECHANICAL_CONTEXT ( 'NONE', #103, 'mechanical' ) ;
#258 = LOCAL_TIME ( 11, 49, 1.000000000000000000, #163 ) ;
#259 = FACE_OUTER_BOUND ( 'NONE', #280, .T. ) ;
#260 = AXIS2_PLACEMENT_3D ( 'NONE', #166, #167, #65 ) ;
#261 = VECTOR ( 'NONE', #129, 1000.000000000000000 ) ;
#262 = PLANE ( 'NONE',  #26 ) ;
#263 = DIRECTION ( 'NONE',  ( -1.000000000000000000, 1.224646799147353454E-16, 0.000000000000000000 ) ) ;
#264 = ADVANCED_BREP_SHAPE_REPRESENTATION ( 'ccdb', ( #177, #169 ), #15 ) ;
#265 = ORIENTED_EDGE ( 'NONE', *, *, #150, .F. ) ;
#266 = EDGE_CURVE ( 'NONE', #148, #292, #35, .T. ) ;
#267 = VECTOR ( 'NONE', #192, 1000.000000000000000 ) ;
#268 = EDGE_CURVE ( 'NONE', #128, #50, #152, .T. ) ;
#269 = ORIENTED_EDGE ( 'NONE', *, *, #80, .T. ) ;
#270 = AXIS2_PLACEMENT_3D ( 'NONE', #296, #206, #272 ) ;
#271 = ORIENTED_EDGE ( 'NONE', *, *, #172, .T. ) ;
#272 = DIRECTION ( 'NONE',  ( 1.000000000000000000, 0.000000000000000000, 0.000000000000000000 ) ) ;
#273 = EDGE_LOOP ( 'NONE', ( #247, #68, #70, #287 ) ) ;
#274 = LINE ( 'NONE', #57, #261 ) ;
#275 = DIRECTION ( 'NONE',  ( 1.000000000000000000, 0.000000000000000000, 0.000000000000000000 ) ) ;
#276 =( NAMED_UNIT ( * ) PLANE_ANGLE_UNIT ( ) SI_UNIT ( $, .RADIAN. ) );
#277 = ORGANIZATION ( 'NEURÈENÝ', 'NEURÈENÝ', '' ) ;
#278 = CARTESIAN_POINT ( 'NONE',  ( 0.000000000000000000, 0.000000000000000000, 5.200000000000009948 ) ) ;
#279 = CARTESIAN_POINT ( 'NONE',  ( -5.500000000000000000, 0.000000000000000000, 5.200000000000009948 ) ) ;
#280 = EDGE_LOOP ( 'NONE', ( #171, #7 ) ) ;
#281 = PERSON_AND_ORGANIZATION ( #125, #277 ) ;
#282 = CIRCLE ( 'NONE', #232, 8.000000000000000000 ) ;
#283 = ORIENTED_EDGE ( 'NONE', *, *, #266, .F. ) ;
#284 = EDGE_CURVE ( 'NONE', #148, #76, #145, .T. ) ;
#285 = FACE_OUTER_BOUND ( 'NONE', #154, .T. ) ;
#286 = CIRCLE ( 'NONE', #123, 5.500000000000000000 ) ;
#287 = ORIENTED_EDGE ( 'NONE', *, *, #268, .F. ) ;
#288 = EDGE_LOOP ( 'NONE', ( #307, #211, #101, #184 ) ) ;
#289 = CC_DESIGN_PERSON_AND_ORGANIZATION_ASSIGNMENT ( #281, #180, ( #116 ) ) ;
#290 = EDGE_LOOP ( 'NONE', ( #220, #215, #30, #24 ) ) ;
#291 = CC_DESIGN_PERSON_AND_ORGANIZATION_ASSIGNMENT ( #234, #112, ( #98 ) ) ;
#292 = VERTEX_POINT ( 'NONE', #279 ) ;
#293 = DIRECTION ( 'NONE',  ( 1.000000000000000000, 0.000000000000000000, 0.000000000000000000 ) ) ;
#294 = CC_DESIGN_APPROVAL ( #134, ( #98 ) ) ;
#295 = VERTEX_POINT ( 'NONE', #230 ) ;
#296 = CARTESIAN_POINT ( 'NONE',  ( 0.000000000000000000, 0.000000000000000000, 205.0000000000000284 ) ) ;
#297 = ADVANCED_FACE ( 'NONE', ( #19 ), #113, .T. ) ;
#298 = CARTESIAN_POINT ( 'NONE',  ( 0.000000000000000000, 0.000000000000000000, 5.000000000000000000 ) ) ;
#299 = APPROVAL_ROLE ( '' ) ;
#300 = DIRECTION ( 'NONE',  ( -0.000000000000000000, -0.000000000000000000, -1.000000000000000000 ) ) ;
#301 = PERSON_AND_ORGANIZATION ( #125, #277 ) ;
#302 = COORDINATED_UNIVERSAL_TIME_OFFSET ( 1, 0, .AHEAD. ) ;
#303 = SECURITY_CLASSIFICATION_LEVEL ( 'unclassified' ) ;
#304 = COORDINATED_UNIVERSAL_TIME_OFFSET ( 1, 0, .AHEAD. ) ;
#305 = PERSON_AND_ORGANIZATION ( #125, #277 ) ;
#306 = AXIS2_PLACEMENT_3D ( 'NONE', #42, #91, #239 ) ;
#307 = ORIENTED_EDGE ( 'NONE', *, *, #256, .F. ) ;
ENDSEC;
END-ISO-10303-21;
