ISO-10303-21;
HEADER;
FILE_DESCRIPTION (( 'STEP AP203' ),
    '1' );
FILE_NAME ('14fa.STEP',
    '2023-02-12T11:35:49',
    ( '' ),
    ( '' ),
    'SwSTEP 2.0',
    'SolidWorks 2019',
    '' );
FILE_SCHEMA (( 'CONFIG_CONTROL_DESIGN' ));
ENDSEC;

DATA;
#1 = COORDINATED_UNIVERSAL_TIME_OFFSET ( 1, 0, .AHEAD. ) ;
#2 = CARTESIAN_POINT ( 'NONE',  ( 0.000000000000000000, 0.000000000000000000, 5.000000000000000000 ) ) ;
#3 = APPLICATION_PROTOCOL_DEFINITION ( 'international standard', 'config_control_design', 1994, #32 ) ;
#4 = AXIS2_PLACEMENT_3D ( 'NONE', #95, #184, #250 ) ;
#5 = PERSON_AND_ORGANIZATION ( #70, #208 ) ;
#6 = VERTEX_POINT ( 'NONE', #81 ) ;
#7 = APPROVAL_STATUS ( 'not_yet_approved' ) ;
#8 = ADVANCED_FACE ( 'NONE', ( #166 ), #251, .T. ) ;
#9 = EDGE_LOOP ( 'NONE', ( #249, #23 ) ) ;
#10 = AXIS2_PLACEMENT_3D ( 'NONE', #225, #77, #33 ) ;
#11 = DIRECTION ( 'NONE',  ( 1.000000000000000000, 0.000000000000000000, -0.000000000000000000 ) ) ;
#12 = CARTESIAN_POINT ( 'NONE',  ( 0.000000000000000000, 0.000000000000000000, 0.000000000000000000 ) ) ;
#13 = CYLINDRICAL_SURFACE ( 'NONE', #239, 7.000000000000000000 ) ;
#14 = FACE_OUTER_BOUND ( 'NONE', #155, .T. ) ;
#15 = CIRCLE ( 'NONE', #29, 4.500000000000000888 ) ;
#16 = CYLINDRICAL_SURFACE ( 'NONE', #10, 4.500000000000000888 ) ;
#17 = EDGE_CURVE ( 'NONE', #6, #126, #112, .T. ) ;
#18 = CARTESIAN_POINT ( 'NONE',  ( -7.000000000000000000, 0.000000000000000000, 5.000000000000000000 ) ) ;
#19 = VERTEX_POINT ( 'NONE', #194 ) ;
#20 = CIRCLE ( 'NONE', #35, 7.000000000000000000 ) ;
#21 = COORDINATED_UNIVERSAL_TIME_OFFSET ( 1, 0, .AHEAD. ) ;
#22 = ADVANCED_FACE ( 'NONE', ( #14 ), #100, .T. ) ;
#23 = ORIENTED_EDGE ( 'NONE', *, *, #114, .F. ) ;
#24 = VERTEX_POINT ( 'NONE', #90 ) ;
#25 = APPROVAL_ROLE ( '' ) ;
#26 = CALENDAR_DATE ( 2023, 12, 2 ) ;
#27 = DIRECTION ( 'NONE',  ( 0.000000000000000000, 0.000000000000000000, 1.000000000000000000 ) ) ;
#28 = APPROVAL ( #7, 'NEURÈENÝ' ) ;
#29 = AXIS2_PLACEMENT_3D ( 'NONE', #147, #221, #53 ) ;
#30 = PLANE ( 'NONE',  #238 ) ;
#31 = ORIENTED_EDGE ( 'NONE', *, *, #72, .F. ) ;
#32 = APPLICATION_CONTEXT ( 'configuration controlled 3d designs of mechanical parts and assemblies' ) ;
#33 = DIRECTION ( 'NONE',  ( -1.000000000000000000, 0.000000000000000000, 0.000000000000000000 ) ) ;
#34 = LINE ( 'NONE', #111, #196 ) ;
#35 = AXIS2_PLACEMENT_3D ( 'NONE', #12, #187, #97 ) ;
#36 = PRODUCT ( '14fa', '14fa', '', ( #86 ) ) ;
#37 = EDGE_LOOP ( 'NONE', ( #128, #73 ) ) ;
#38 = APPROVAL_PERSON_ORGANIZATION ( #107, #50, #25 ) ;
#39 = DIRECTION ( 'NONE',  ( -0.000000000000000000, -0.000000000000000000, -1.000000000000000000 ) ) ;
#40 = ORIENTED_EDGE ( 'NONE', *, *, #17, .T. ) ;
#41 = CARTESIAN_POINT ( 'NONE',  ( 0.000000000000000000, 0.000000000000000000, 5.000000000000000000 ) ) ;
#42 = FACE_OUTER_BOUND ( 'NONE', #37, .T. ) ;
#43 = PRODUCT_RELATED_PRODUCT_CATEGORY ( 'detail', '', ( #36 ) ) ;
#44 = CALENDAR_DATE ( 2023, 12, 2 ) ;
#45 = CALENDAR_DATE ( 2023, 12, 2 ) ;
#46 = ADVANCED_FACE ( 'NONE', ( #217, #42 ), #30, .T. ) ;
#47 = CIRCLE ( 'NONE', #142, 7.000000000000000000 ) ;
#48 = ADVANCED_FACE ( 'NONE', ( #214 ), #169, .T. ) ;
#49 = CLOSED_SHELL ( 'NONE', ( #109, #55, #8, #46, #91, #48, #22 ) ) ;
#50 = APPROVAL ( #103, 'NEURÈENÝ' ) ;
#51 = CARTESIAN_POINT ( 'NONE',  ( -4.500000000000000888, 0.000000000000000000, 200.0000000000000000 ) ) ;
#52 = ORIENTED_EDGE ( 'NONE', *, *, #96, .F. ) ;
#53 = DIRECTION ( 'NONE',  ( 1.000000000000000000, 0.000000000000000000, 0.000000000000000000 ) ) ;
#54 = LINE ( 'NONE', #51, #175 ) ;
#55 = ADVANCED_FACE ( 'NONE', ( #248 ), #13, .T. ) ;
#56 = CIRCLE ( 'NONE', #83, 4.500000000000000888 ) ;
#57 = DIRECTION ( 'NONE',  ( 0.000000000000000000, 0.000000000000000000, 1.000000000000000000 ) ) ;
#58 = EDGE_LOOP ( 'NONE', ( #52, #243, #71, #254 ) ) ;
#59 = VERTEX_POINT ( 'NONE', #18 ) ;
#60 = CC_DESIGN_APPROVAL ( #28, ( #74 ) ) ;
#61 = DIRECTION ( 'NONE',  ( -1.000000000000000000, 0.000000000000000000, 0.000000000000000000 ) ) ;
#62 = EDGE_CURVE ( 'NONE', #171, #24, #20, .T. ) ;
#63 = CARTESIAN_POINT ( 'NONE',  ( 0.000000000000000000, 0.000000000000000000, 200.0000000000000000 ) ) ;
#64 = APPROVAL_DATE_TIME ( #215, #50 ) ;
#65 = COORDINATED_UNIVERSAL_TIME_OFFSET ( 1, 0, .AHEAD. ) ;
#66 = CC_DESIGN_APPROVAL ( #165, ( #212 ) ) ;
#67 = COORDINATED_UNIVERSAL_TIME_OFFSET ( 1, 0, .AHEAD. ) ;
#68 = SHAPE_DEFINITION_REPRESENTATION ( #99, #94 ) ;
#69 = ORIENTED_EDGE ( 'NONE', *, *, #229, .F. ) ;
#70 = PERSON ( 'NEURÈENÝ', 'NEURÈENÝ', 'NEURÈENÝ', ('NEURÈENÝ'), ('NEURÈENÝ'), ('NEURÈENÝ') ) ;
#71 = ORIENTED_EDGE ( 'NONE', *, *, #72, .T. ) ;
#72 = EDGE_CURVE ( 'NONE', #126, #192, #54, .T. ) ;
#73 = ORIENTED_EDGE ( 'NONE', *, *, #204, .T. ) ;
#74 = SECURITY_CLASSIFICATION ( '', '', #234 ) ;
#75 = ORIENTED_EDGE ( 'NONE', *, *, #219, .T. ) ;
#76 = CC_DESIGN_PERSON_AND_ORGANIZATION_ASSIGNMENT ( #173, #153, ( #74 ) ) ;
#77 = DIRECTION ( 'NONE',  ( -0.000000000000000000, -0.000000000000000000, -1.000000000000000000 ) ) ;
#78 = DIRECTION ( 'NONE',  ( -0.000000000000000000, -0.000000000000000000, -1.000000000000000000 ) ) ;
#79 = CC_DESIGN_PERSON_AND_ORGANIZATION_ASSIGNMENT ( #5, #178, ( #247 ) ) ;
#80 = CARTESIAN_POINT ( 'NONE',  ( 0.000000000000000000, 0.000000000000000000, 5.000000000000000000 ) ) ;
#81 = CARTESIAN_POINT ( 'NONE',  ( 4.500000000000000888, 5.510910596163089556E-16, 200.0000000000000000 ) ) ;
#82 =( NAMED_UNIT ( * ) PLANE_ANGLE_UNIT ( ) SI_UNIT ( $, .RADIAN. ) );
#83 = AXIS2_PLACEMENT_3D ( 'NONE', #163, #207, #129 ) ;
#84 = DIRECTION ( 'NONE',  ( 1.000000000000000000, 0.000000000000000000, 0.000000000000000000 ) ) ;
#85 = LOCAL_TIME ( 12, 35, 49.00000000000000000, #1 ) ;
#86 = MECHANICAL_CONTEXT ( 'NONE', #32, 'mechanical' ) ;
#87 = DATE_TIME_ROLE ( 'classification_date' ) ;
#88 = PERSON_AND_ORGANIZATION ( #70, #208 ) ;
#89 = APPROVAL_DATE_TIME ( #102, #28 ) ;
#90 = CARTESIAN_POINT ( 'NONE',  ( 7.000000000000000000, 8.572527594031473190E-16, 0.000000000000000000 ) ) ;
#91 = ADVANCED_FACE ( 'NONE', ( #152 ), #252, .F. ) ;
#92 = CIRCLE ( 'NONE', #233, 7.000000000000000000 ) ;
#93 = DIRECTION ( 'NONE',  ( 0.000000000000000000, 0.000000000000000000, 1.000000000000000000 ) ) ;
#94 = ADVANCED_BREP_SHAPE_REPRESENTATION ( '14fa', ( #236, #228 ), #179 ) ;
#95 = CARTESIAN_POINT ( 'NONE',  ( 0.000000000000000000, 0.000000000000000000, 200.0000000000000000 ) ) ;
#96 = EDGE_CURVE ( 'NONE', #6, #240, #209, .T. ) ;
#97 = DIRECTION ( 'NONE',  ( 1.000000000000000000, 0.000000000000000000, 0.000000000000000000 ) ) ;
#98 = CIRCLE ( 'NONE', #216, 7.000000000000000000 ) ;
#99 = PRODUCT_DEFINITION_SHAPE ( 'NONE', 'NONE',  #212 ) ;
#100 = PLANE ( 'NONE',  #226 ) ;
#101 = CARTESIAN_POINT ( 'NONE',  ( 7.000000000000000000, 8.572527594031473190E-16, 5.000000000000000000 ) ) ;
#102 = DATE_AND_TIME ( #137, #186 ) ;
#103 = APPROVAL_STATUS ( 'not_yet_approved' ) ;
#104 = ORIENTED_EDGE ( 'NONE', *, *, #136, .T. ) ;
#105 = CARTESIAN_POINT ( 'NONE',  ( 0.000000000000000000, 0.000000000000000000, 0.000000000000000000 ) ) ;
#106 = CALENDAR_DATE ( 2023, 12, 2 ) ;
#107 = PERSON_AND_ORGANIZATION ( #70, #208 ) ;
#108 = DIRECTION ( 'NONE',  ( 1.000000000000000000, 0.000000000000000000, 0.000000000000000000 ) ) ;
#109 = ADVANCED_FACE ( 'NONE', ( #245 ), #16, .T. ) ;
#110 = DIRECTION ( 'NONE',  ( 1.000000000000000000, 0.000000000000000000, -0.000000000000000000 ) ) ;
#111 = CARTESIAN_POINT ( 'NONE',  ( -7.000000000000000000, 0.000000000000000000, 5.000000000000000000 ) ) ;
#112 = CIRCLE ( 'NONE', #200, 4.500000000000000888 ) ;
#113 = CARTESIAN_POINT ( 'NONE',  ( -4.500000000000000888, 0.000000000000000000, 200.0000000000000000 ) ) ;
#114 = EDGE_CURVE ( 'NONE', #240, #192, #56, .T. ) ;
#115 = PERSON_AND_ORGANIZATION ( #70, #208 ) ;
#116 = CARTESIAN_POINT ( 'NONE',  ( 0.000000000000000000, 0.000000000000000000, 5.000000000000000000 ) ) ;
#117 = PERSON_AND_ORGANIZATION ( #70, #208 ) ;
#118 = CC_DESIGN_APPROVAL ( #50, ( #247 ) ) ;
#119 = DATE_AND_TIME ( #26, #180 ) ;
#120 = EDGE_CURVE ( 'NONE', #59, #19, #98, .T. ) ;
#121 = PERSON_AND_ORGANIZATION ( #70, #208 ) ;
#122 = DIRECTION ( 'NONE',  ( 1.000000000000000000, 0.000000000000000000, 0.000000000000000000 ) ) ;
#123 = APPROVAL_PERSON_ORGANIZATION ( #117, #165, #141 ) ;
#124 = LOCAL_TIME ( 12, 35, 49.00000000000000000, #211 ) ;
#125 = CC_DESIGN_PERSON_AND_ORGANIZATION_ASSIGNMENT ( #115, #190, ( #212 ) ) ;
#126 = VERTEX_POINT ( 'NONE', #113 ) ;
#127 = APPLICATION_CONTEXT ( 'configuration controlled 3d designs of mechanical parts and assemblies' ) ;
#128 = ORIENTED_EDGE ( 'NONE', *, *, #120, .T. ) ;
#129 = DIRECTION ( 'NONE',  ( 1.000000000000000000, 0.000000000000000000, 0.000000000000000000 ) ) ;
#130 = DIRECTION ( 'NONE',  ( -0.000000000000000000, -0.000000000000000000, -1.000000000000000000 ) ) ;
#131 = DIRECTION ( 'NONE',  ( 0.000000000000000000, 0.000000000000000000, 1.000000000000000000 ) ) ;
#132 = VECTOR ( 'NONE', #78, 1000.000000000000000 ) ;
#133 = CARTESIAN_POINT ( 'NONE',  ( 0.000000000000000000, 0.000000000000000000, 5.000000000000000000 ) ) ;
#134 = DIRECTION ( 'NONE',  ( 0.000000000000000000, 0.000000000000000000, 1.000000000000000000 ) ) ;
#135 = DIRECTION ( 'NONE',  ( -0.000000000000000000, -0.000000000000000000, -1.000000000000000000 ) ) ;
#136 = EDGE_CURVE ( 'NONE', #24, #171, #92, .T. ) ;
#137 = CALENDAR_DATE ( 2023, 12, 2 ) ;
#138 = APPROVAL_STATUS ( 'not_yet_approved' ) ;
#139 = PERSON_AND_ORGANIZATION_ROLE ( 'design_owner' ) ;
#140 = DIRECTION ( 'NONE',  ( 0.000000000000000000, 0.000000000000000000, 1.000000000000000000 ) ) ;
#141 = APPROVAL_ROLE ( '' ) ;
#142 = AXIS2_PLACEMENT_3D ( 'NONE', #246, #131, #205 ) ;
#143 = EDGE_LOOP ( 'NONE', ( #197, #168, #104, #69 ) ) ;
#144 = ORIENTED_EDGE ( 'NONE', *, *, #229, .T. ) ;
#145 = CC_DESIGN_PERSON_AND_ORGANIZATION_ASSIGNMENT ( #88, #139, ( #36 ) ) ;
#146 = LINE ( 'NONE', #101, #160 ) ;
#147 = CARTESIAN_POINT ( 'NONE',  ( 0.000000000000000000, 0.000000000000000000, 200.0000000000000000 ) ) ;
#148 = UNCERTAINTY_MEASURE_WITH_UNIT (LENGTH_MEASURE( 1.000000000000000082E-05 ), #185, 'distance_accuracy_value', 'NONE');
#149 = CARTESIAN_POINT ( 'NONE',  ( 4.500000000000000888, 5.510910596163089556E-16, 5.000000000000000000 ) ) ;
#150 = DIRECTION ( 'NONE',  ( 0.000000000000000000, 0.000000000000000000, 1.000000000000000000 ) ) ;
#151 = EDGE_LOOP ( 'NONE', ( #242, #188, #224, #31 ) ) ;
#152 = FACE_OUTER_BOUND ( 'NONE', #183, .T. ) ;
#153 = PERSON_AND_ORGANIZATION_ROLE ( 'classification_officer' ) ;
#154 =( NAMED_UNIT ( * ) SI_UNIT ( $, .STERADIAN. ) SOLID_ANGLE_UNIT ( ) );
#155 = EDGE_LOOP ( 'NONE', ( #75, #40 ) ) ;
#156 = APPLICATION_PROTOCOL_DEFINITION ( 'international standard', 'config_control_design', 1994, #127 ) ;
#157 = CC_DESIGN_PERSON_AND_ORGANIZATION_ASSIGNMENT ( #231, #176, ( #247 ) ) ;
#158 = AXIS2_PLACEMENT_3D ( 'NONE', #203, #57, #11 ) ;
#159 = EDGE_CURVE ( 'NONE', #192, #240, #177, .T. ) ;
#160 = VECTOR ( 'NONE', #220, 1000.000000000000000 ) ;
#161 = CARTESIAN_POINT ( 'NONE',  ( -7.000000000000000000, 0.000000000000000000, 0.000000000000000000 ) ) ;
#162 = CARTESIAN_POINT ( 'NONE',  ( -4.500000000000000888, 0.000000000000000000, 5.000000000000000000 ) ) ;
#163 = CARTESIAN_POINT ( 'NONE',  ( 0.000000000000000000, 0.000000000000000000, 5.000000000000000000 ) ) ;
#164 = AXIS2_PLACEMENT_3D ( 'NONE', #41, #181, #182 ) ;
#165 = APPROVAL ( #138, 'NEURÈENÝ' ) ;
#166 = FACE_OUTER_BOUND ( 'NONE', #235, .T. ) ;
#167 = CARTESIAN_POINT ( 'NONE',  ( 0.000000000000000000, 0.000000000000000000, 200.0000000000000000 ) ) ;
#168 = ORIENTED_EDGE ( 'NONE', *, *, #193, .T. ) ;
#169 = CYLINDRICAL_SURFACE ( 'NONE', #4, 4.500000000000000888 ) ;
#170 = ORIENTED_EDGE ( 'NONE', *, *, #136, .F. ) ;
#171 = VERTEX_POINT ( 'NONE', #161 ) ;
#172 = APPROVAL_PERSON_ORGANIZATION ( #121, #28, #189 ) ;
#173 = PERSON_AND_ORGANIZATION ( #70, #208 ) ;
#174 = DIRECTION ( 'NONE',  ( 1.000000000000000000, 0.000000000000000000, 0.000000000000000000 ) ) ;
#175 = VECTOR ( 'NONE', #130, 1000.000000000000000 ) ;
#176 = PERSON_AND_ORGANIZATION_ROLE ( 'design_supplier' ) ;
#177 = CIRCLE ( 'NONE', #164, 4.500000000000000888 ) ;
#178 = PERSON_AND_ORGANIZATION_ROLE ( 'creator' ) ;
#179 =( GEOMETRIC_REPRESENTATION_CONTEXT ( 3 ) GLOBAL_UNCERTAINTY_ASSIGNED_CONTEXT ( ( #148 ) ) GLOBAL_UNIT_ASSIGNED_CONTEXT ( ( #185, #82, #154 ) ) REPRESENTATION_CONTEXT ( 'NONE', 'WORKASPACE' ) );
#180 = LOCAL_TIME ( 12, 35, 49.00000000000000000, #21 ) ;
#181 = DIRECTION ( 'NONE',  ( 0.000000000000000000, 0.000000000000000000, 1.000000000000000000 ) ) ;
#182 = DIRECTION ( 'NONE',  ( 1.000000000000000000, 0.000000000000000000, 0.000000000000000000 ) ) ;
#183 = EDGE_LOOP ( 'NONE', ( #241, #170 ) ) ;
#184 = DIRECTION ( 'NONE',  ( -0.000000000000000000, -0.000000000000000000, -1.000000000000000000 ) ) ;
#185 =( LENGTH_UNIT ( ) NAMED_UNIT ( * ) SI_UNIT ( .MILLI., .METRE. ) );
#186 = LOCAL_TIME ( 12, 35, 49.00000000000000000, #65 ) ;
#187 = DIRECTION ( 'NONE',  ( 0.000000000000000000, 0.000000000000000000, 1.000000000000000000 ) ) ;
#188 = ORIENTED_EDGE ( 'NONE', *, *, #96, .T. ) ;
#189 = APPROVAL_ROLE ( '' ) ;
#190 = PERSON_AND_ORGANIZATION_ROLE ( 'creator' ) ;
#191 = DATE_TIME_ROLE ( 'creation_date' ) ;
#192 = VERTEX_POINT ( 'NONE', #162 ) ;
#193 = EDGE_CURVE ( 'NONE', #19, #24, #146, .T. ) ;
#194 = CARTESIAN_POINT ( 'NONE',  ( 7.000000000000000000, 8.572527594031473190E-16, 5.000000000000000000 ) ) ;
#195 = CC_DESIGN_DATE_AND_TIME_ASSIGNMENT ( #230, #87, ( #74 ) ) ;
#196 = VECTOR ( 'NONE', #223, 1000.000000000000000 ) ;
#197 = ORIENTED_EDGE ( 'NONE', *, *, #204, .F. ) ;
#198 = ORIENTED_EDGE ( 'NONE', *, *, #193, .F. ) ;
#199 = DIRECTION ( 'NONE',  ( 1.000000000000000000, 0.000000000000000000, -0.000000000000000000 ) ) ;
#200 = AXIS2_PLACEMENT_3D ( 'NONE', #167, #140, #122 ) ;
#201 = CC_DESIGN_SECURITY_CLASSIFICATION ( #74, ( #247 ) ) ;
#202 = CARTESIAN_POINT ( 'NONE',  ( 0.000000000000000000, 0.000000000000000000, 0.000000000000000000 ) ) ;
#203 = CARTESIAN_POINT ( 'NONE',  ( 0.000000000000000000, 0.000000000000000000, 0.000000000000000000 ) ) ;
#204 = EDGE_CURVE ( 'NONE', #19, #59, #47, .T. ) ;
#205 = DIRECTION ( 'NONE',  ( 1.000000000000000000, 0.000000000000000000, 0.000000000000000000 ) ) ;
#206 = DIRECTION ( 'NONE',  ( -1.000000000000000000, 0.000000000000000000, 0.000000000000000000 ) ) ;
#207 = DIRECTION ( 'NONE',  ( 0.000000000000000000, 0.000000000000000000, 1.000000000000000000 ) ) ;
#208 = ORGANIZATION ( 'NEURÈENÝ', 'NEURÈENÝ', '' ) ;
#209 = LINE ( 'NONE', #227, #132 ) ;
#210 = LOCAL_TIME ( 12, 35, 49.00000000000000000, #67 ) ;
#211 = COORDINATED_UNIVERSAL_TIME_OFFSET ( 1, 0, .AHEAD. ) ;
#212 = PRODUCT_DEFINITION ( 'NEZNÁMÝ', '', #247, #232 ) ;
#213 = APPROVAL_DATE_TIME ( #237, #165 ) ;
#214 = FACE_OUTER_BOUND ( 'NONE', #58, .T. ) ;
#215 = DATE_AND_TIME ( #106, #85 ) ;
#216 = AXIS2_PLACEMENT_3D ( 'NONE', #80, #93, #84 ) ;
#217 = FACE_BOUND ( 'NONE', #9, .T. ) ;
#218 = AXIS2_PLACEMENT_3D ( 'NONE', #2, #135, #206 ) ;
#219 = EDGE_CURVE ( 'NONE', #126, #6, #15, .T. ) ;
#220 = DIRECTION ( 'NONE',  ( -0.000000000000000000, -0.000000000000000000, -1.000000000000000000 ) ) ;
#221 = DIRECTION ( 'NONE',  ( 0.000000000000000000, 0.000000000000000000, 1.000000000000000000 ) ) ;
#222 = ORIENTED_EDGE ( 'NONE', *, *, #120, .F. ) ;
#223 = DIRECTION ( 'NONE',  ( -0.000000000000000000, -0.000000000000000000, -1.000000000000000000 ) ) ;
#224 = ORIENTED_EDGE ( 'NONE', *, *, #114, .T. ) ;
#225 = CARTESIAN_POINT ( 'NONE',  ( 0.000000000000000000, 0.000000000000000000, 200.0000000000000000 ) ) ;
#226 = AXIS2_PLACEMENT_3D ( 'NONE', #63, #255, #199 ) ;
#227 = CARTESIAN_POINT ( 'NONE',  ( 4.500000000000000888, 5.510910596163089556E-16, 200.0000000000000000 ) ) ;
#228 = AXIS2_PLACEMENT_3D ( 'NONE', #105, #27, #174 ) ;
#229 = EDGE_CURVE ( 'NONE', #59, #171, #34, .T. ) ;
#230 = DATE_AND_TIME ( #45, #210 ) ;
#231 = PERSON_AND_ORGANIZATION ( #70, #208 ) ;
#232 = DESIGN_CONTEXT ( 'detailed design', #127, 'design' ) ;
#233 = AXIS2_PLACEMENT_3D ( 'NONE', #202, #134, #108 ) ;
#234 = SECURITY_CLASSIFICATION_LEVEL ( 'unclassified' ) ;
#235 = EDGE_LOOP ( 'NONE', ( #198, #222, #144, #244 ) ) ;
#236 = MANIFOLD_SOLID_BREP ( 'Pøidat vysunutím3', #49 ) ;
#237 = DATE_AND_TIME ( #44, #124 ) ;
#238 = AXIS2_PLACEMENT_3D ( 'NONE', #116, #150, #110 ) ;
#239 = AXIS2_PLACEMENT_3D ( 'NONE', #133, #39, #61 ) ;
#240 = VERTEX_POINT ( 'NONE', #149 ) ;
#241 = ORIENTED_EDGE ( 'NONE', *, *, #62, .F. ) ;
#242 = ORIENTED_EDGE ( 'NONE', *, *, #17, .F. ) ;
#243 = ORIENTED_EDGE ( 'NONE', *, *, #219, .F. ) ;
#244 = ORIENTED_EDGE ( 'NONE', *, *, #62, .T. ) ;
#245 = FACE_OUTER_BOUND ( 'NONE', #151, .T. ) ;
#246 = CARTESIAN_POINT ( 'NONE',  ( 0.000000000000000000, 0.000000000000000000, 5.000000000000000000 ) ) ;
#247 = PRODUCT_DEFINITION_FORMATION_WITH_SPECIFIED_SOURCE ( 'LIBOVOLNÝ', '', #36, .NOT_KNOWN. ) ;
#248 = FACE_OUTER_BOUND ( 'NONE', #143, .T. ) ;
#249 = ORIENTED_EDGE ( 'NONE', *, *, #159, .F. ) ;
#250 = DIRECTION ( 'NONE',  ( -1.000000000000000000, 0.000000000000000000, 0.000000000000000000 ) ) ;
#251 = CYLINDRICAL_SURFACE ( 'NONE', #218, 7.000000000000000000 ) ;
#252 = PLANE ( 'NONE',  #158 ) ;
#253 = CC_DESIGN_DATE_AND_TIME_ASSIGNMENT ( #119, #191, ( #212 ) ) ;
#254 = ORIENTED_EDGE ( 'NONE', *, *, #159, .T. ) ;
#255 = DIRECTION ( 'NONE',  ( 0.000000000000000000, 0.000000000000000000, 1.000000000000000000 ) ) ;
ENDSEC;
END-ISO-10303-21;
