ISO-10303-21;
HEADER;
FILE_DESCRIPTION (( 'STEP AP203' ),
    '1' );
FILE_NAME ('fc82.STEP',
    '2022-07-07T10:19:15',
    ( '' ),
    ( '' ),
    'SwSTEP 2.0',
    'SolidWorks 2019',
    '' );
FILE_SCHEMA (( 'CONFIG_CONTROL_DESIGN' ));
ENDSEC;

DATA;
#1 = AXIS2_PLACEMENT_3D ( 'NONE', #8, #157, #36 ) ;
#2 = ADVANCED_FACE ( 'NONE', ( #239 ), #149, .T. ) ;
#3 = ORIENTED_EDGE ( 'NONE', *, *, #160, .T. ) ;
#4 = PERSON ( 'NEURÈENÝ', 'NEURÈENÝ', 'NEURÈENÝ', ('NEURÈENÝ'), ('NEURÈENÝ'), ('NEURÈENÝ') ) ;
#5 = AXIS2_PLACEMENT_3D ( 'NONE', #230, #16, #115 ) ;
#6 = ORIENTED_EDGE ( 'NONE', *, *, #82, .T. ) ;
#7 = DIRECTION ( 'NONE',  ( -0.000000000000000000, -0.000000000000000000, -1.000000000000000000 ) ) ;
#8 = CARTESIAN_POINT ( 'NONE',  ( 0.000000000000000000, 0.000000000000000000, 3.000000000000000000 ) ) ;
#9 = CIRCLE ( 'NONE', #5, 2.700000000000000178 ) ;
#10 = CARTESIAN_POINT ( 'NONE',  ( 0.000000000000000000, 0.000000000000000000, 403.0000000000000000 ) ) ;
#11 = MANIFOLD_SOLID_BREP ( 'Zaoblit1', #60 ) ;
#12 = LINE ( 'NONE', #292, #132 ) ;
#13 = EDGE_CURVE ( 'NONE', #150, #57, #296, .T. ) ;
#14 = PLANE ( 'NONE',  #215 ) ;
#15 = PERSON_AND_ORGANIZATION ( #4, #121 ) ;
#16 = DIRECTION ( 'NONE',  ( -0.000000000000000000, -0.000000000000000000, -1.000000000000000000 ) ) ;
#17 = COORDINATED_UNIVERSAL_TIME_OFFSET ( 1, 0, .AHEAD. ) ;
#18 = DIRECTION ( 'NONE',  ( 0.000000000000000000, 0.000000000000000000, 1.000000000000000000 ) ) ;
#19 = CC_DESIGN_PERSON_AND_ORGANIZATION_ASSIGNMENT ( #183, #274, ( #78 ) ) ;
#20 = DIRECTION ( 'NONE',  ( 0.000000000000000000, 0.000000000000000000, 1.000000000000000000 ) ) ;
#21 = CARTESIAN_POINT ( 'NONE',  ( 2.500000000000000000, 3.061616997868383141E-16, 403.0000000000000000 ) ) ;
#22 = TOROIDAL_SURFACE ( 'NONE', #189, 2.700000000000000178, 0.2000000000000000111 ) ;
#23 = CALENDAR_DATE ( 2022, 7, 7 ) ;
#24 = PRODUCT ( 'fc82', 'fc82', '', ( #234 ) ) ;
#25 = AXIS2_PLACEMENT_3D ( 'NONE', #190, #118, #97 ) ;
#26 = ORIENTED_EDGE ( 'NONE', *, *, #176, .F. ) ;
#27 = DATE_AND_TIME ( #166, #76 ) ;
#28 = CARTESIAN_POINT ( 'NONE',  ( 0.000000000000000000, 0.000000000000000000, 3.000000000000000000 ) ) ;
#29 = ORIENTED_EDGE ( 'NONE', *, *, #128, .F. ) ;
#30 = AXIS2_PLACEMENT_3D ( 'NONE', #293, #84, #248 ) ;
#31 = ORIENTED_EDGE ( 'NONE', *, *, #232, .T. ) ;
#32 = VERTEX_POINT ( 'NONE', #177 ) ;
#33 = ADVANCED_FACE ( 'NONE', ( #111 ), #14, .T. ) ;
#34 = CARTESIAN_POINT ( 'NONE',  ( -2.500000000000000000, 0.000000000000000000, 3.199999999999980638 ) ) ;
#35 = CIRCLE ( 'NONE', #201, 2.500000000000000000 ) ;
#36 = DIRECTION ( 'NONE',  ( 1.000000000000000000, 0.000000000000000000, 0.000000000000000000 ) ) ;
#37 = APPROVAL_PERSON_ORGANIZATION ( #231, #209, #119 ) ;
#38 = DIRECTION ( 'NONE',  ( -0.000000000000000000, -0.000000000000000000, -1.000000000000000000 ) ) ;
#39 = PERSON_AND_ORGANIZATION_ROLE ( 'creator' ) ;
#40 = CARTESIAN_POINT ( 'NONE',  ( 0.000000000000000000, 0.000000000000000000, 3.199999999999980638 ) ) ;
#41 = CC_DESIGN_DATE_AND_TIME_ASSIGNMENT ( #94, #42, ( #96 ) ) ;
#42 = DATE_TIME_ROLE ( 'classification_date' ) ;
#43 = CARTESIAN_POINT ( 'NONE',  ( -5.000000000000000000, 0.000000000000000000, 0.000000000000000000 ) ) ;
#44 = AXIS2_PLACEMENT_3D ( 'NONE', #40, #268, #228 ) ;
#45 = PERSON_AND_ORGANIZATION ( #4, #121 ) ;
#46 = DIRECTION ( 'NONE',  ( 0.000000000000000000, 0.000000000000000000, -1.000000000000000000 ) ) ;
#47 = UNCERTAINTY_MEASURE_WITH_UNIT (LENGTH_MEASURE( 1.000000000000000082E-05 ), #116, 'distance_accuracy_value', 'NONE');
#48 = APPROVAL ( #188, 'NEURÈENÝ' ) ;
#49 = LINE ( 'NONE', #256, #155 ) ;
#50 =( NAMED_UNIT ( * ) PLANE_ANGLE_UNIT ( ) SI_UNIT ( $, .RADIAN. ) );
#51 =( GEOMETRIC_REPRESENTATION_CONTEXT ( 3 ) GLOBAL_UNCERTAINTY_ASSIGNED_CONTEXT ( ( #47 ) ) GLOBAL_UNIT_ASSIGNED_CONTEXT ( ( #116, #50, #299 ) ) REPRESENTATION_CONTEXT ( 'NONE', 'WORKASPACE' ) );
#52 = ORIENTED_EDGE ( 'NONE', *, *, #193, .F. ) ;
#53 = AXIS2_PLACEMENT_3D ( 'NONE', #64, #112, #130 ) ;
#54 = AXIS2_PLACEMENT_3D ( 'NONE', #278, #18, #208 ) ;
#55 = ORIENTED_EDGE ( 'NONE', *, *, #220, .T. ) ;
#56 = DIRECTION ( 'NONE',  ( -0.000000000000000000, -0.000000000000000000, -1.000000000000000000 ) ) ;
#57 = VERTEX_POINT ( 'NONE', #295 ) ;
#58 = CYLINDRICAL_SURFACE ( 'NONE', #88, 2.500000000000000000 ) ;
#59 = CARTESIAN_POINT ( 'NONE',  ( 0.000000000000000000, 0.000000000000000000, 3.199999999999980638 ) ) ;
#60 = CLOSED_SHELL ( 'NONE', ( #172, #75, #181, #2, #122, #303, #225, #33, #61 ) ) ;
#61 = ADVANCED_FACE ( 'NONE', ( #153 ), #180, .F. ) ;
#62 = DIRECTION ( 'NONE',  ( -1.000000000000000000, 0.000000000000000000, 0.000000000000000000 ) ) ;
#63 = APPROVAL_ROLE ( '' ) ;
#64 = CARTESIAN_POINT ( 'NONE',  ( 0.000000000000000000, 0.000000000000000000, 3.000000000000000000 ) ) ;
#65 = SECURITY_CLASSIFICATION_LEVEL ( 'unclassified' ) ;
#66 = LINE ( 'NONE', #163, #151 ) ;
#67 = PERSON_AND_ORGANIZATION ( #4, #121 ) ;
#68 = CARTESIAN_POINT ( 'NONE',  ( 5.000000000000000000, 6.123233995736766282E-16, 0.000000000000000000 ) ) ;
#69 = AXIS2_PLACEMENT_3D ( 'NONE', #178, #199, #62 ) ;
#70 = COORDINATED_UNIVERSAL_TIME_OFFSET ( 1, 0, .AHEAD. ) ;
#71 = DIRECTION ( 'NONE',  ( -0.000000000000000000, -0.000000000000000000, -1.000000000000000000 ) ) ;
#72 = ORIENTED_EDGE ( 'NONE', *, *, #145, .F. ) ;
#73 = EDGE_CURVE ( 'NONE', #150, #282, #211, .T. ) ;
#74 = CIRCLE ( 'NONE', #1, 2.700000000000000178 ) ;
#75 = ADVANCED_FACE ( 'NONE', ( #244 ), #58, .T. ) ;
#76 = LOCAL_TIME ( 12, 19, 15.00000000000000000, #70 ) ;
#77 = CIRCLE ( 'NONE', #54, 5.000000000000000000 ) ;
#78 = PRODUCT_DEFINITION_FORMATION_WITH_SPECIFIED_SOURCE ( 'LIBOVOLNÝ', '', #24, .NOT_KNOWN. ) ;
#79 = EDGE_LOOP ( 'NONE', ( #168, #31 ) ) ;
#80 = EDGE_LOOP ( 'NONE', ( #98, #242 ) ) ;
#81 = EDGE_LOOP ( 'NONE', ( #3, #174 ) ) ;
#82 = EDGE_CURVE ( 'NONE', #129, #196, #12, .T. ) ;
#83 = DIRECTION ( 'NONE',  ( 0.000000000000000000, 0.000000000000000000, 1.000000000000000000 ) ) ;
#84 = DIRECTION ( 'NONE',  ( 0.000000000000000000, 0.000000000000000000, 1.000000000000000000 ) ) ;
#85 = EDGE_CURVE ( 'NONE', #263, #282, #74, .T. ) ;
#86 = CYLINDRICAL_SURFACE ( 'NONE', #69, 5.000000000000000000 ) ;
#87 = APPLICATION_PROTOCOL_DEFINITION ( 'international standard', 'config_control_design', 1994, #141 ) ;
#88 = AXIS2_PLACEMENT_3D ( 'NONE', #175, #38, #91 ) ;
#89 = CARTESIAN_POINT ( 'NONE',  ( -5.000000000000000000, 0.000000000000000000, 3.000000000000000000 ) ) ;
#90 = APPLICATION_PROTOCOL_DEFINITION ( 'international standard', 'config_control_design', 1994, #144 ) ;
#91 = DIRECTION ( 'NONE',  ( -1.000000000000000000, 0.000000000000000000, 0.000000000000000000 ) ) ;
#92 = CARTESIAN_POINT ( 'NONE',  ( 2.700000000000000178, 0.000000000000000000, 2.999999999999990674 ) ) ;
#93 = CC_DESIGN_SECURITY_CLASSIFICATION ( #96, ( #78 ) ) ;
#94 = DATE_AND_TIME ( #162, #287 ) ;
#95 = CARTESIAN_POINT ( 'NONE',  ( 0.000000000000000000, 0.000000000000000000, 0.000000000000000000 ) ) ;
#96 = SECURITY_CLASSIFICATION ( '', '', #65 ) ;
#97 = DIRECTION ( 'NONE',  ( 1.000000000000000000, 0.000000000000000000, 0.000000000000000000 ) ) ;
#98 = ORIENTED_EDGE ( 'NONE', *, *, #85, .T. ) ;
#99 = AXIS2_PLACEMENT_3D ( 'NONE', #109, #184, #294 ) ;
#100 = ORIENTED_EDGE ( 'NONE', *, *, #260, .F. ) ;
#101 = APPROVAL_DATE_TIME ( #27, #48 ) ;
#102 = EDGE_CURVE ( 'NONE', #57, #150, #284, .T. ) ;
#103 = EDGE_LOOP ( 'NONE', ( #257, #126, #146, #52 ) ) ;
#104 = CIRCLE ( 'NONE', #30, 5.000000000000000000 ) ;
#105 = ORIENTED_EDGE ( 'NONE', *, *, #193, .T. ) ;
#106 = ORIENTED_EDGE ( 'NONE', *, *, #176, .T. ) ;
#107 = FACE_OUTER_BOUND ( 'NONE', #125, .T. ) ;
#108 = AXIS2_PLACEMENT_3D ( 'NONE', #59, #113, #182 ) ;
#109 = CARTESIAN_POINT ( 'NONE',  ( 0.000000000000000000, 0.000000000000000000, 3.199999999999980638 ) ) ;
#110 = CC_DESIGN_PERSON_AND_ORGANIZATION_ASSIGNMENT ( #45, #139, ( #96 ) ) ;
#111 = FACE_OUTER_BOUND ( 'NONE', #79, .T. ) ;
#112 = DIRECTION ( 'NONE',  ( 0.000000000000000000, 0.000000000000000000, 1.000000000000000000 ) ) ;
#113 = DIRECTION ( 'NONE',  ( 0.000000000000000000, 0.000000000000000000, 1.000000000000000000 ) ) ;
#114 = CC_DESIGN_PERSON_AND_ORGANIZATION_ASSIGNMENT ( #15, #281, ( #170 ) ) ;
#115 = DIRECTION ( 'NONE',  ( 1.000000000000000000, 0.000000000000000000, 0.000000000000000000 ) ) ;
#116 =( LENGTH_UNIT ( ) NAMED_UNIT ( * ) SI_UNIT ( .MILLI., .METRE. ) );
#117 = PRODUCT_DEFINITION_SHAPE ( 'NONE', 'NONE',  #170 ) ;
#118 = DIRECTION ( 'NONE',  ( 0.000000000000000000, 0.000000000000000000, 1.000000000000000000 ) ) ;
#119 = APPROVAL_ROLE ( '' ) ;
#120 = DIRECTION ( 'NONE',  ( -0.000000000000000000, -0.000000000000000000, -1.000000000000000000 ) ) ;
#121 = ORGANIZATION ( 'NEURÈENÝ', 'NEURÈENÝ', '' ) ;
#122 = ADVANCED_FACE ( 'NONE', ( #134, #273 ), #224, .T. ) ;
#123 = CIRCLE ( 'NONE', #25, 2.500000000000000000 ) ;
#124 = CC_DESIGN_PERSON_AND_ORGANIZATION_ASSIGNMENT ( #227, #249, ( #24 ) ) ;
#125 = EDGE_LOOP ( 'NONE', ( #72, #171, #106, #289 ) ) ;
#126 = ORIENTED_EDGE ( 'NONE', *, *, #73, .T. ) ;
#127 = ORIENTED_EDGE ( 'NONE', *, *, #200, .F. ) ;
#128 = EDGE_CURVE ( 'NONE', #152, #291, #66, .T. ) ;
#129 = VERTEX_POINT ( 'NONE', #89 ) ;
#130 = DIRECTION ( 'NONE',  ( 1.000000000000000000, 0.000000000000000000, 0.000000000000000000 ) ) ;
#131 = CC_DESIGN_PERSON_AND_ORGANIZATION_ASSIGNMENT ( #67, #39, ( #78 ) ) ;
#132 = VECTOR ( 'NONE', #251, 1000.000000000000000 ) ;
#133 = LOCAL_TIME ( 12, 19, 15.00000000000000000, #229 ) ;
#134 = FACE_BOUND ( 'NONE', #80, .T. ) ;
#135 = DIRECTION ( 'NONE',  ( 0.000000000000000000, 0.000000000000000000, 1.000000000000000000 ) ) ;
#136 = DIRECTION ( 'NONE',  ( -1.000000000000000000, 1.224646799147353207E-16, 0.000000000000000000 ) ) ;
#137 = PERSON_AND_ORGANIZATION ( #4, #121 ) ;
#138 = CYLINDRICAL_SURFACE ( 'NONE', #253, 2.500000000000000000 ) ;
#139 = PERSON_AND_ORGANIZATION_ROLE ( 'classification_officer' ) ;
#140 = CARTESIAN_POINT ( 'NONE',  ( 0.000000000000000000, 0.000000000000000000, 403.0000000000000000 ) ) ;
#141 = APPLICATION_CONTEXT ( 'configuration controlled 3d designs of mechanical parts and assemblies' ) ;
#142 = DIRECTION ( 'NONE',  ( 0.000000000000000000, 0.000000000000000000, 1.000000000000000000 ) ) ;
#143 = APPROVAL_STATUS ( 'not_yet_approved' ) ;
#144 = APPLICATION_CONTEXT ( 'configuration controlled 3d designs of mechanical parts and assemblies' ) ;
#145 = EDGE_CURVE ( 'NONE', #152, #129, #237, .T. ) ;
#146 = ORIENTED_EDGE ( 'NONE', *, *, #85, .F. ) ;
#147 = AXIS2_PLACEMENT_3D ( 'NONE', #28, #56, #240 ) ;
#148 = EDGE_LOOP ( 'NONE', ( #127, #198, #55, #214 ) ) ;
#149 = CYLINDRICAL_SURFACE ( 'NONE', #147, 5.000000000000000000 ) ;
#150 = VERTEX_POINT ( 'NONE', #34 ) ;
#151 = VECTOR ( 'NONE', #7, 1000.000000000000000 ) ;
#152 = VERTEX_POINT ( 'NONE', #203 ) ;
#153 = FACE_OUTER_BOUND ( 'NONE', #307, .T. ) ;
#154 = CC_DESIGN_DATE_AND_TIME_ASSIGNMENT ( #179, #272, ( #170 ) ) ;
#155 = VECTOR ( 'NONE', #120, 1000.000000000000000 ) ;
#156 = CC_DESIGN_APPROVAL ( #187, ( #78 ) ) ;
#157 = DIRECTION ( 'NONE',  ( -0.000000000000000000, -0.000000000000000000, -1.000000000000000000 ) ) ;
#158 = APPROVAL_DATE_TIME ( #255, #187 ) ;
#159 = FACE_OUTER_BOUND ( 'NONE', #103, .T. ) ;
#160 = EDGE_CURVE ( 'NONE', #129, #152, #169, .T. ) ;
#161 = CC_DESIGN_APPROVAL ( #48, ( #96 ) ) ;
#162 = CALENDAR_DATE ( 2022, 7, 7 ) ;
#163 = CARTESIAN_POINT ( 'NONE',  ( 5.000000000000000000, 6.123233995736766282E-16, 3.000000000000000000 ) ) ;
#164 = PERSON_AND_ORGANIZATION ( #4, #121 ) ;
#165 = FACE_OUTER_BOUND ( 'NONE', #192, .T. ) ;
#166 = CALENDAR_DATE ( 2022, 7, 7 ) ;
#167 = DIRECTION ( 'NONE',  ( 0.000000000000000000, -1.000000000000000000, 0.000000000000000000 ) ) ;
#168 = ORIENTED_EDGE ( 'NONE', *, *, #195, .T. ) ;
#169 = CIRCLE ( 'NONE', #53, 5.000000000000000000 ) ;
#170 = PRODUCT_DEFINITION ( 'NEZNÁMÝ', '', #78, #259 ) ;
#171 = ORIENTED_EDGE ( 'NONE', *, *, #128, .T. ) ;
#172 = ADVANCED_FACE ( 'NONE', ( #159 ), #22, .F. ) ;
#173 = VERTEX_POINT ( 'NONE', #204 ) ;
#174 = ORIENTED_EDGE ( 'NONE', *, *, #145, .T. ) ;
#175 = CARTESIAN_POINT ( 'NONE',  ( 0.000000000000000000, 0.000000000000000000, 403.0000000000000000 ) ) ;
#176 = EDGE_CURVE ( 'NONE', #291, #196, #104, .T. ) ;
#177 = CARTESIAN_POINT ( 'NONE',  ( 2.500000000000000000, 3.061616997868383141E-16, 403.0000000000000000 ) ) ;
#178 = CARTESIAN_POINT ( 'NONE',  ( 0.000000000000000000, 0.000000000000000000, 3.000000000000000000 ) ) ;
#179 = DATE_AND_TIME ( #23, #133 ) ;
#180 = TOROIDAL_SURFACE ( 'NONE', #108, 2.700000000000000178, 0.2000000000000000111 ) ;
#181 = ADVANCED_FACE ( 'NONE', ( #107 ), #86, .T. ) ;
#182 = DIRECTION ( 'NONE',  ( 1.000000000000000000, 0.000000000000000000, 0.000000000000000000 ) ) ;
#183 = PERSON_AND_ORGANIZATION ( #4, #121 ) ;
#184 = DIRECTION ( 'NONE',  ( 0.000000000000000000, 0.000000000000000000, 1.000000000000000000 ) ) ;
#185 = CARTESIAN_POINT ( 'NONE',  ( 0.000000000000000000, 0.000000000000000000, 0.000000000000000000 ) ) ;
#186 = CARTESIAN_POINT ( 'NONE',  ( -2.700000000000000178, 3.306546357697853733E-16, 2.999999999999990674 ) ) ;
#187 = APPROVAL ( #301, 'NEURÈENÝ' ) ;
#188 = APPROVAL_STATUS ( 'not_yet_approved' ) ;
#189 = AXIS2_PLACEMENT_3D ( 'NONE', #222, #269, #221 ) ;
#190 = CARTESIAN_POINT ( 'NONE',  ( 0.000000000000000000, 0.000000000000000000, 403.0000000000000000 ) ) ;
#191 = SHAPE_DEFINITION_REPRESENTATION ( #117, #276 ) ;
#192 = EDGE_LOOP ( 'NONE', ( #266, #26 ) ) ;
#193 = EDGE_CURVE ( 'NONE', #57, #263, #258, .T. ) ;
#194 = ORIENTED_EDGE ( 'NONE', *, *, #200, .T. ) ;
#195 = EDGE_CURVE ( 'NONE', #173, #32, #35, .T. ) ;
#196 = VERTEX_POINT ( 'NONE', #43 ) ;
#197 = ORIENTED_EDGE ( 'NONE', *, *, #102, .F. ) ;
#198 = ORIENTED_EDGE ( 'NONE', *, *, #195, .F. ) ;
#199 = DIRECTION ( 'NONE',  ( -0.000000000000000000, -0.000000000000000000, -1.000000000000000000 ) ) ;
#200 = EDGE_CURVE ( 'NONE', #32, #57, #235, .T. ) ;
#201 = AXIS2_PLACEMENT_3D ( 'NONE', #302, #142, #300 ) ;
#202 = DIRECTION ( 'NONE',  ( 1.000000000000000000, 0.000000000000000000, -0.000000000000000000 ) ) ;
#203 = CARTESIAN_POINT ( 'NONE',  ( 5.000000000000000000, 6.123233995736766282E-16, 3.000000000000000000 ) ) ;
#204 = CARTESIAN_POINT ( 'NONE',  ( -2.500000000000000000, 0.000000000000000000, 403.0000000000000000 ) ) ;
#205 = DIRECTION ( 'NONE',  ( 0.000000000000000000, 0.000000000000000000, 1.000000000000000000 ) ) ;
#206 = FACE_OUTER_BOUND ( 'NONE', #148, .T. ) ;
#207 = COORDINATED_UNIVERSAL_TIME_OFFSET ( 1, 0, .AHEAD. ) ;
#208 = DIRECTION ( 'NONE',  ( 1.000000000000000000, 0.000000000000000000, 0.000000000000000000 ) ) ;
#209 = APPROVAL ( #143, 'NEURÈENÝ' ) ;
#210 = DATE_AND_TIME ( #236, #288 ) ;
#211 = CIRCLE ( 'NONE', #261, 0.2000000000000000944 ) ;
#212 = CC_DESIGN_APPROVAL ( #209, ( #170 ) ) ;
#213 = CARTESIAN_POINT ( 'NONE',  ( 2.700000000000000178, 0.000000000000000000, 3.199999999999980638 ) ) ;
#214 = ORIENTED_EDGE ( 'NONE', *, *, #13, .T. ) ;
#215 = AXIS2_PLACEMENT_3D ( 'NONE', #10, #205, #270 ) ;
#216 = ORIENTED_EDGE ( 'NONE', *, *, #160, .F. ) ;
#217 = EDGE_LOOP ( 'NONE', ( #265, #194, #238, #286 ) ) ;
#218 = AXIS2_PLACEMENT_3D ( 'NONE', #213, #167, #46 ) ;
#219 = EDGE_LOOP ( 'NONE', ( #29, #216, #6, #290 ) ) ;
#220 = EDGE_CURVE ( 'NONE', #173, #150, #49, .T. ) ;
#221 = DIRECTION ( 'NONE',  ( 1.000000000000000000, 0.000000000000000000, 0.000000000000000000 ) ) ;
#222 = CARTESIAN_POINT ( 'NONE',  ( 0.000000000000000000, 0.000000000000000000, 3.199999999999980638 ) ) ;
#223 = AXIS2_PLACEMENT_3D ( 'NONE', #243, #83, #226 ) ;
#224 = PLANE ( 'NONE',  #241 ) ;
#225 = ADVANCED_FACE ( 'NONE', ( #206 ), #138, .T. ) ;
#226 = DIRECTION ( 'NONE',  ( 1.000000000000000000, 0.000000000000000000, 0.000000000000000000 ) ) ;
#227 = PERSON_AND_ORGANIZATION ( #4, #121 ) ;
#228 = DIRECTION ( 'NONE',  ( 1.000000000000000000, 0.000000000000000000, 0.000000000000000000 ) ) ;
#229 = COORDINATED_UNIVERSAL_TIME_OFFSET ( 1, 0, .AHEAD. ) ;
#230 = CARTESIAN_POINT ( 'NONE',  ( 0.000000000000000000, 0.000000000000000000, 3.000000000000000000 ) ) ;
#231 = PERSON_AND_ORGANIZATION ( #4, #121 ) ;
#232 = EDGE_CURVE ( 'NONE', #32, #173, #123, .T. ) ;
#233 = DIRECTION ( 'NONE',  ( -1.000000000000000000, 0.000000000000000000, 0.000000000000000000 ) ) ;
#234 = MECHANICAL_CONTEXT ( 'NONE', #141, 'mechanical' ) ;
#235 = LINE ( 'NONE', #21, #271 ) ;
#236 = CALENDAR_DATE ( 2022, 7, 7 ) ;
#237 = CIRCLE ( 'NONE', #223, 5.000000000000000000 ) ;
#238 = ORIENTED_EDGE ( 'NONE', *, *, #102, .T. ) ;
#239 = FACE_OUTER_BOUND ( 'NONE', #219, .T. ) ;
#240 = DIRECTION ( 'NONE',  ( -1.000000000000000000, 0.000000000000000000, 0.000000000000000000 ) ) ;
#241 = AXIS2_PLACEMENT_3D ( 'NONE', #275, #135, #202 ) ;
#242 = ORIENTED_EDGE ( 'NONE', *, *, #260, .T. ) ;
#243 = CARTESIAN_POINT ( 'NONE',  ( 0.000000000000000000, 0.000000000000000000, 3.000000000000000000 ) ) ;
#244 = FACE_OUTER_BOUND ( 'NONE', #217, .T. ) ;
#245 = APPROVAL_PERSON_ORGANIZATION ( #164, #187, #63 ) ;
#246 = DIRECTION ( 'NONE',  ( 1.224646799147353207E-16, 1.000000000000000000, -0.000000000000000000 ) ) ;
#247 = DIRECTION ( 'NONE',  ( 1.000000000000000000, 0.000000000000000000, -0.000000000000000000 ) ) ;
#248 = DIRECTION ( 'NONE',  ( 1.000000000000000000, 0.000000000000000000, 0.000000000000000000 ) ) ;
#249 = PERSON_AND_ORGANIZATION_ROLE ( 'design_owner' ) ;
#250 = APPROVAL_PERSON_ORGANIZATION ( #137, #48, #279 ) ;
#251 = DIRECTION ( 'NONE',  ( -0.000000000000000000, -0.000000000000000000, -1.000000000000000000 ) ) ;
#252 = COORDINATED_UNIVERSAL_TIME_OFFSET ( 1, 0, .AHEAD. ) ;
#253 = AXIS2_PLACEMENT_3D ( 'NONE', #140, #306, #233 ) ;
#254 = PLANE ( 'NONE',  #267 ) ;
#255 = DATE_AND_TIME ( #277, #305 ) ;
#256 = CARTESIAN_POINT ( 'NONE',  ( -2.500000000000000000, 0.000000000000000000, 403.0000000000000000 ) ) ;
#257 = ORIENTED_EDGE ( 'NONE', *, *, #13, .F. ) ;
#258 = CIRCLE ( 'NONE', #218, 0.2000000000000000944 ) ;
#259 = DESIGN_CONTEXT ( 'detailed design', #144, 'design' ) ;
#260 = EDGE_CURVE ( 'NONE', #282, #263, #9, .T. ) ;
#261 = AXIS2_PLACEMENT_3D ( 'NONE', #298, #246, #136 ) ;
#262 = AXIS2_PLACEMENT_3D ( 'NONE', #185, #20, #297 ) ;
#263 = VERTEX_POINT ( 'NONE', #92 ) ;
#264 = ORIENTED_EDGE ( 'NONE', *, *, #73, .F. ) ;
#265 = ORIENTED_EDGE ( 'NONE', *, *, #232, .F. ) ;
#266 = ORIENTED_EDGE ( 'NONE', *, *, #285, .F. ) ;
#267 = AXIS2_PLACEMENT_3D ( 'NONE', #95, #280, #247 ) ;
#268 = DIRECTION ( 'NONE',  ( 0.000000000000000000, 0.000000000000000000, 1.000000000000000000 ) ) ;
#269 = DIRECTION ( 'NONE',  ( 0.000000000000000000, 0.000000000000000000, 1.000000000000000000 ) ) ;
#270 = DIRECTION ( 'NONE',  ( 1.000000000000000000, 0.000000000000000000, -0.000000000000000000 ) ) ;
#271 = VECTOR ( 'NONE', #71, 1000.000000000000000 ) ;
#272 = DATE_TIME_ROLE ( 'creation_date' ) ;
#273 = FACE_OUTER_BOUND ( 'NONE', #81, .T. ) ;
#274 = PERSON_AND_ORGANIZATION_ROLE ( 'design_supplier' ) ;
#275 = CARTESIAN_POINT ( 'NONE',  ( 0.000000000000000000, 0.000000000000000000, 3.000000000000000000 ) ) ;
#276 = ADVANCED_BREP_SHAPE_REPRESENTATION ( 'fc82', ( #11, #262 ), #51 ) ;
#277 = CALENDAR_DATE ( 2022, 7, 7 ) ;
#278 = CARTESIAN_POINT ( 'NONE',  ( 0.000000000000000000, 0.000000000000000000, 0.000000000000000000 ) ) ;
#279 = APPROVAL_ROLE ( '' ) ;
#280 = DIRECTION ( 'NONE',  ( 0.000000000000000000, 0.000000000000000000, 1.000000000000000000 ) ) ;
#281 = PERSON_AND_ORGANIZATION_ROLE ( 'creator' ) ;
#282 = VERTEX_POINT ( 'NONE', #186 ) ;
#283 = PRODUCT_RELATED_PRODUCT_CATEGORY ( 'detail', '', ( #24 ) ) ;
#284 = CIRCLE ( 'NONE', #99, 2.500000000000000000 ) ;
#285 = EDGE_CURVE ( 'NONE', #196, #291, #77, .T. ) ;
#286 = ORIENTED_EDGE ( 'NONE', *, *, #220, .F. ) ;
#287 = LOCAL_TIME ( 12, 19, 15.00000000000000000, #17 ) ;
#288 = LOCAL_TIME ( 12, 19, 15.00000000000000000, #207 ) ;
#289 = ORIENTED_EDGE ( 'NONE', *, *, #82, .F. ) ;
#290 = ORIENTED_EDGE ( 'NONE', *, *, #285, .T. ) ;
#291 = VERTEX_POINT ( 'NONE', #68 ) ;
#292 = CARTESIAN_POINT ( 'NONE',  ( -5.000000000000000000, 0.000000000000000000, 3.000000000000000000 ) ) ;
#293 = CARTESIAN_POINT ( 'NONE',  ( 0.000000000000000000, 0.000000000000000000, 0.000000000000000000 ) ) ;
#294 = DIRECTION ( 'NONE',  ( 1.000000000000000000, 0.000000000000000000, 0.000000000000000000 ) ) ;
#295 = CARTESIAN_POINT ( 'NONE',  ( 2.500000000000000000, 3.061616997868383141E-16, 3.199999999999980638 ) ) ;
#296 = CIRCLE ( 'NONE', #44, 2.500000000000000000 ) ;
#297 = DIRECTION ( 'NONE',  ( 1.000000000000000000, 0.000000000000000000, 0.000000000000000000 ) ) ;
#298 = CARTESIAN_POINT ( 'NONE',  ( -2.700000000000000178, 3.306546357697853733E-16, 3.199999999999980638 ) ) ;
#299 =( NAMED_UNIT ( * ) SI_UNIT ( $, .STERADIAN. ) SOLID_ANGLE_UNIT ( ) );
#300 = DIRECTION ( 'NONE',  ( 1.000000000000000000, 0.000000000000000000, 0.000000000000000000 ) ) ;
#301 = APPROVAL_STATUS ( 'not_yet_approved' ) ;
#302 = CARTESIAN_POINT ( 'NONE',  ( 0.000000000000000000, 0.000000000000000000, 403.0000000000000000 ) ) ;
#303 = ADVANCED_FACE ( 'NONE', ( #165 ), #254, .F. ) ;
#304 = APPROVAL_DATE_TIME ( #210, #209 ) ;
#305 = LOCAL_TIME ( 12, 19, 15.00000000000000000, #252 ) ;
#306 = DIRECTION ( 'NONE',  ( -0.000000000000000000, -0.000000000000000000, -1.000000000000000000 ) ) ;
#307 = EDGE_LOOP ( 'NONE', ( #264, #197, #105, #100 ) ) ;
ENDSEC;
END-ISO-10303-21;
