ISO-10303-21;
HEADER;
FILE_DESCRIPTION (( 'STEP AP203' ),
    '1' );
FILE_NAME ('900f.STEP',
    '2022-11-03T10:43:13',
    ( '' ),
    ( '' ),
    'SwSTEP 2.0',
    'SolidWorks 2019',
    '' );
FILE_SCHEMA (( 'CONFIG_CONTROL_DESIGN' ));
ENDSEC;

DATA;
#1 = CARTESIAN_POINT ( 'NONE',  ( 0.000000000000000000, 0.000000000000000000, 5.000000000000000000 ) ) ;
#2 = LINE ( 'NONE', #97, #269 ) ;
#3 = LINE ( 'NONE', #67, #287 ) ;
#4 = DIRECTION ( 'NONE',  ( 0.000000000000000000, 0.000000000000000000, 1.000000000000000000 ) ) ;
#5 = UNCERTAINTY_MEASURE_WITH_UNIT (LENGTH_MEASURE( 1.000000000000000082E-05 ), #245, 'distance_accuracy_value', 'NONE');
#6 = CARTESIAN_POINT ( 'NONE',  ( 0.000000000000000000, 0.000000000000000000, 5.200000000000009948 ) ) ;
#7 = DIRECTION ( 'NONE',  ( 1.000000000000000000, 0.000000000000000000, 0.000000000000000000 ) ) ;
#8 = TOROIDAL_SURFACE ( 'NONE', #99, 5.200000000000001066, 0.2000000000000000111 ) ;
#9 = DATE_TIME_ROLE ( 'creation_date' ) ;
#10 = EDGE_CURVE ( 'NONE', #111, #209, #102, .T. ) ;
#11 = DATE_AND_TIME ( #300, #153 ) ;
#12 = VERTEX_POINT ( 'NONE', #160 ) ;
#13 = COORDINATED_UNIVERSAL_TIME_OFFSET ( 1, 0, .AHEAD. ) ;
#14 = AXIS2_PLACEMENT_3D ( 'NONE', #51, #213, #123 ) ;
#15 = CYLINDRICAL_SURFACE ( 'NONE', #141, 8.000000000000000000 ) ;
#16 = CIRCLE ( 'NONE', #20, 5.200000000000001066 ) ;
#17 = ORIENTED_EDGE ( 'NONE', *, *, #46, .T. ) ;
#18 = ORIENTED_EDGE ( 'NONE', *, *, #257, .F. ) ;
#19 = VERTEX_POINT ( 'NONE', #250 ) ;
#20 = AXIS2_PLACEMENT_3D ( 'NONE', #195, #192, #263 ) ;
#21 = DIRECTION ( 'NONE',  ( -1.000000000000000000, 0.000000000000000000, 0.000000000000000000 ) ) ;
#22 = ADVANCED_FACE ( 'NONE', ( #227 ), #15, .T. ) ;
#23 = CARTESIAN_POINT ( 'NONE',  ( 5.200000000000001066, 0.000000000000000000, 5.000000000000005329 ) ) ;
#24 = CYLINDRICAL_SURFACE ( 'NONE', #221, 8.000000000000000000 ) ;
#25 = CC_DESIGN_PERSON_AND_ORGANIZATION_ASSIGNMENT ( #202, #297, ( #191 ) ) ;
#26 = DIRECTION ( 'NONE',  ( -0.000000000000000000, -0.000000000000000000, -1.000000000000000000 ) ) ;
#27 = CC_DESIGN_SECURITY_CLASSIFICATION ( #36, ( #191 ) ) ;
#28 = DIRECTION ( 'NONE',  ( 0.000000000000000000, 0.000000000000000000, 1.000000000000000000 ) ) ;
#29 = DIRECTION ( 'NONE',  ( 0.000000000000000000, 0.000000000000000000, 1.000000000000000000 ) ) ;
#30 = APPROVAL_STATUS ( 'not_yet_approved' ) ;
#31 = CIRCLE ( 'NONE', #121, 8.000000000000000000 ) ;
#32 = CARTESIAN_POINT ( 'NONE',  ( 5.200000000000001066, 0.000000000000000000, 5.200000000000009948 ) ) ;
#33 = EDGE_CURVE ( 'NONE', #299, #157, #183, .T. ) ;
#34 = EDGE_CURVE ( 'NONE', #305, #12, #42, .T. ) ;
#35 = DIRECTION ( 'NONE',  ( 0.000000000000000000, 0.000000000000000000, 1.000000000000000000 ) ) ;
#36 = SECURITY_CLASSIFICATION ( '', '', #274 ) ;
#37 = APPROVAL_ROLE ( '' ) ;
#38 = EDGE_LOOP ( 'NONE', ( #190, #231, #229, #109 ) ) ;
#39 = APPROVAL_ROLE ( '' ) ;
#40 = ORIENTED_EDGE ( 'NONE', *, *, #80, .T. ) ;
#41 = APPLICATION_CONTEXT ( 'configuration controlled 3d designs of mechanical parts and assemblies' ) ;
#42 = CIRCLE ( 'NONE', #253, 5.000000000000000888 ) ;
#43 = EDGE_LOOP ( 'NONE', ( #302, #203 ) ) ;
#44 = LOCAL_TIME ( 11, 43, 13.00000000000000000, #201 ) ;
#45 = EDGE_LOOP ( 'NONE', ( #91, #303 ) ) ;
#46 = EDGE_CURVE ( 'NONE', #90, #19, #119, .T. ) ;
#47 = EDGE_LOOP ( 'NONE', ( #255, #66 ) ) ;
#48 = APPLICATION_CONTEXT ( 'configuration controlled 3d designs of mechanical parts and assemblies' ) ;
#49 = DIRECTION ( 'NONE',  ( -0.000000000000000000, -0.000000000000000000, -1.000000000000000000 ) ) ;
#50 = TOROIDAL_SURFACE ( 'NONE', #76, 5.200000000000001066, 0.2000000000000000111 ) ;
#51 = CARTESIAN_POINT ( 'NONE',  ( -5.200000000000001066, 6.368163355566237368E-16, 5.200000000000009948 ) ) ;
#52 = DIRECTION ( 'NONE',  ( 0.000000000000000000, 0.000000000000000000, 1.000000000000000000 ) ) ;
#53 = ADVANCED_FACE ( 'NONE', ( #212 ), #24, .T. ) ;
#54 = CARTESIAN_POINT ( 'NONE',  ( 0.000000000000000000, 0.000000000000000000, 5.000000000000000000 ) ) ;
#55 = DIRECTION ( 'NONE',  ( 1.000000000000000000, 0.000000000000000000, -0.000000000000000000 ) ) ;
#56 = PRODUCT_DEFINITION ( 'NEZNÁMÝ', '', #191, #112 ) ;
#57 = APPLICATION_PROTOCOL_DEFINITION ( 'international standard', 'config_control_design', 1994, #41 ) ;
#58 = DIRECTION ( 'NONE',  ( 1.000000000000000000, 0.000000000000000000, 0.000000000000000000 ) ) ;
#59 = CARTESIAN_POINT ( 'NONE',  ( 0.000000000000000000, 0.000000000000000000, 5.200000000000009948 ) ) ;
#60 = ORIENTED_EDGE ( 'NONE', *, *, #266, .F. ) ;
#61 = DATE_AND_TIME ( #184, #137 ) ;
#62 = DIRECTION ( 'NONE',  ( 1.000000000000000000, 0.000000000000000000, 0.000000000000000000 ) ) ;
#63 = DATE_AND_TIME ( #108, #208 ) ;
#64 = ORIENTED_EDGE ( 'NONE', *, *, #294, .T. ) ;
#65 = CIRCLE ( 'NONE', #103, 5.000000000000000888 ) ;
#66 = ORIENTED_EDGE ( 'NONE', *, *, #10, .T. ) ;
#67 = CARTESIAN_POINT ( 'NONE',  ( 5.000000000000000888, 6.123233995736767268E-16, 158.0000000000000000 ) ) ;
#68 = FACE_OUTER_BOUND ( 'NONE', #279, .T. ) ;
#69 = AXIS2_PLACEMENT_3D ( 'NONE', #215, #288, #261 ) ;
#70 = CIRCLE ( 'NONE', #280, 5.000000000000000888 ) ;
#71 = CARTESIAN_POINT ( 'NONE',  ( 0.000000000000000000, 0.000000000000000000, 158.0000000000000000 ) ) ;
#72 = EDGE_CURVE ( 'NONE', #19, #90, #242, .T. ) ;
#73 = FACE_OUTER_BOUND ( 'NONE', #135, .T. ) ;
#74 = CARTESIAN_POINT ( 'NONE',  ( 0.000000000000000000, 0.000000000000000000, 0.000000000000000000 ) ) ;
#75 = CARTESIAN_POINT ( 'NONE',  ( 0.000000000000000000, 0.000000000000000000, 0.000000000000000000 ) ) ;
#76 = AXIS2_PLACEMENT_3D ( 'NONE', #6, #101, #155 ) ;
#77 = PERSON_AND_ORGANIZATION ( #92, #126 ) ;
#78 = ADVANCED_FACE ( 'NONE', ( #73 ), #237, .T. ) ;
#79 = DATE_AND_TIME ( #292, #264 ) ;
#80 = EDGE_CURVE ( 'NONE', #113, #299, #285, .T. ) ;
#81 = CARTESIAN_POINT ( 'NONE',  ( -5.200000000000001066, 6.368163355566237368E-16, 5.000000000000005329 ) ) ;
#82 = CC_DESIGN_APPROVAL ( #235, ( #36 ) ) ;
#83 = PERSON_AND_ORGANIZATION ( #92, #126 ) ;
#84 = PERSON_AND_ORGANIZATION_ROLE ( 'design_supplier' ) ;
#85 = VERTEX_POINT ( 'NONE', #169 ) ;
#86 = CIRCLE ( 'NONE', #216, 0.1999999999999996503 ) ;
#87 = COORDINATED_UNIVERSAL_TIME_OFFSET ( 1, 0, .AHEAD. ) ;
#88 = CARTESIAN_POINT ( 'NONE',  ( 0.000000000000000000, 0.000000000000000000, 5.000000000000000000 ) ) ;
#89 = EDGE_CURVE ( 'NONE', #111, #90, #258, .T. ) ;
#90 = VERTEX_POINT ( 'NONE', #307 ) ;
#91 = ORIENTED_EDGE ( 'NONE', *, *, #107, .T. ) ;
#92 = PERSON ( 'NEURÈENÝ', 'NEURÈENÝ', 'NEURÈENÝ', ('NEURÈENÝ'), ('NEURÈENÝ'), ('NEURÈENÝ') ) ;
#93 = DIRECTION ( 'NONE',  ( 1.000000000000000000, 0.000000000000000000, 0.000000000000000000 ) ) ;
#94 = DIRECTION ( 'NONE',  ( 0.000000000000000000, 0.000000000000000000, 1.000000000000000000 ) ) ;
#95 = CLOSED_SHELL ( 'NONE', ( #296, #224, #53, #22, #117, #260, #206, #78, #154 ) ) ;
#96 = CARTESIAN_POINT ( 'NONE',  ( 0.000000000000000000, 0.000000000000000000, 158.0000000000000000 ) ) ;
#97 = CARTESIAN_POINT ( 'NONE',  ( -8.000000000000000000, 0.000000000000000000, 5.000000000000000000 ) ) ;
#98 = CARTESIAN_POINT ( 'NONE',  ( -5.000000000000000888, 0.000000000000000000, 158.0000000000000000 ) ) ;
#99 = AXIS2_PLACEMENT_3D ( 'NONE', #234, #116, #219 ) ;
#100 = APPROVAL_ROLE ( '' ) ;
#101 = DIRECTION ( 'NONE',  ( 0.000000000000000000, 0.000000000000000000, 1.000000000000000000 ) ) ;
#102 = CIRCLE ( 'NONE', #146, 8.000000000000000000 ) ;
#103 = AXIS2_PLACEMENT_3D ( 'NONE', #142, #52, #144 ) ;
#104 = APPROVAL_DATE_TIME ( #63, #120 ) ;
#105 = APPROVAL_STATUS ( 'not_yet_approved' ) ;
#106 = ORIENTED_EDGE ( 'NONE', *, *, #218, .F. ) ;
#107 = EDGE_CURVE ( 'NONE', #157, #299, #16, .T. ) ;
#108 = CALENDAR_DATE ( 2022, 3, 11 ) ;
#109 = ORIENTED_EDGE ( 'NONE', *, *, #72, .T. ) ;
#110 = APPROVAL_PERSON_ORGANIZATION ( #151, #214, #100 ) ;
#111 = VERTEX_POINT ( 'NONE', #148 ) ;
#112 = DESIGN_CONTEXT ( 'detailed design', #41, 'design' ) ;
#113 = VERTEX_POINT ( 'NONE', #306 ) ;
#114 = PRODUCT_DEFINITION_SHAPE ( 'NONE', 'NONE',  #56 ) ;
#115 = DIRECTION ( 'NONE',  ( 0.000000000000000000, 0.000000000000000000, 1.000000000000000000 ) ) ;
#116 = DIRECTION ( 'NONE',  ( 0.000000000000000000, 0.000000000000000000, 1.000000000000000000 ) ) ;
#117 = ADVANCED_FACE ( 'NONE', ( #193, #284 ), #289, .T. ) ;
#118 = CYLINDRICAL_SURFACE ( 'NONE', #186, 5.000000000000000888 ) ;
#119 = CIRCLE ( 'NONE', #204, 8.000000000000000000 ) ;
#120 = APPROVAL ( #105, 'NEURÈENÝ' ) ;
#121 = AXIS2_PLACEMENT_3D ( 'NONE', #293, #4, #7 ) ;
#122 = CARTESIAN_POINT ( 'NONE',  ( 0.000000000000000000, 0.000000000000000000, 158.0000000000000000 ) ) ;
#123 = DIRECTION ( 'NONE',  ( -1.000000000000000000, 1.224646799147353454E-16, 0.000000000000000000 ) ) ;
#124 =( NAMED_UNIT ( * ) PLANE_ANGLE_UNIT ( ) SI_UNIT ( $, .RADIAN. ) );
#125 = DIRECTION ( 'NONE',  ( 0.000000000000000000, 0.000000000000000000, 1.000000000000000000 ) ) ;
#126 = ORGANIZATION ( 'NEURÈENÝ', 'NEURÈENÝ', '' ) ;
#127 = CARTESIAN_POINT ( 'NONE',  ( 0.000000000000000000, 0.000000000000000000, 158.0000000000000000 ) ) ;
#128 =( NAMED_UNIT ( * ) SI_UNIT ( $, .STERADIAN. ) SOLID_ANGLE_UNIT ( ) );
#129 = CYLINDRICAL_SURFACE ( 'NONE', #275, 5.000000000000000888 ) ;
#130 = APPROVAL_DATE_TIME ( #79, #214 ) ;
#131 = ORIENTED_EDGE ( 'NONE', *, *, #172, .T. ) ;
#132 = SHAPE_DEFINITION_REPRESENTATION ( #114, #282 ) ;
#133 = ORIENTED_EDGE ( 'NONE', *, *, #140, .F. ) ;
#134 = PRODUCT ( '900f', '900f', '', ( #181 ) ) ;
#135 = EDGE_LOOP ( 'NONE', ( #163, #210 ) ) ;
#136 = CC_DESIGN_PERSON_AND_ORGANIZATION_ASSIGNMENT ( #83, #182, ( #36 ) ) ;
#137 = LOCAL_TIME ( 11, 43, 13.00000000000000000, #87 ) ;
#138 = ORIENTED_EDGE ( 'NONE', *, *, #80, .F. ) ;
#139 = ORIENTED_EDGE ( 'NONE', *, *, #294, .F. ) ;
#140 = EDGE_CURVE ( 'NONE', #209, #19, #2, .T. ) ;
#141 = AXIS2_PLACEMENT_3D ( 'NONE', #88, #162, #21 ) ;
#142 = CARTESIAN_POINT ( 'NONE',  ( 0.000000000000000000, 0.000000000000000000, 5.200000000000009948 ) ) ;
#143 = AXIS2_PLACEMENT_3D ( 'NONE', #286, #173, #55 ) ;
#144 = DIRECTION ( 'NONE',  ( 1.000000000000000000, 0.000000000000000000, 0.000000000000000000 ) ) ;
#145 = DIRECTION ( 'NONE',  ( 1.000000000000000000, 0.000000000000000000, 0.000000000000000000 ) ) ;
#146 = AXIS2_PLACEMENT_3D ( 'NONE', #189, #276, #62 ) ;
#147 = VECTOR ( 'NONE', #267, 1000.000000000000000 ) ;
#148 = CARTESIAN_POINT ( 'NONE',  ( 8.000000000000000000, 9.797174393178825657E-16, 5.000000000000000000 ) ) ;
#149 = DIRECTION ( 'NONE',  ( 0.000000000000000000, 0.000000000000000000, -1.000000000000000000 ) ) ;
#150 = CC_DESIGN_PERSON_AND_ORGANIZATION_ASSIGNMENT ( #187, #84, ( #191 ) ) ;
#151 = PERSON_AND_ORGANIZATION ( #92, #126 ) ;
#152 = DIRECTION ( 'NONE',  ( 0.000000000000000000, -1.000000000000000000, 0.000000000000000000 ) ) ;
#153 = LOCAL_TIME ( 11, 43, 13.00000000000000000, #13 ) ;
#154 = ADVANCED_FACE ( 'NONE', ( #68 ), #8, .F. ) ;
#155 = DIRECTION ( 'NONE',  ( 1.000000000000000000, 0.000000000000000000, 0.000000000000000000 ) ) ;
#156 = APPROVAL_STATUS ( 'not_yet_approved' ) ;
#157 = VERTEX_POINT ( 'NONE', #23 ) ;
#158 = AXIS2_PLACEMENT_3D ( 'NONE', #75, #35, #175 ) ;
#159 = PERSON_AND_ORGANIZATION ( #92, #126 ) ;
#160 = CARTESIAN_POINT ( 'NONE',  ( -5.000000000000000888, 0.000000000000000000, 158.0000000000000000 ) ) ;
#161 = CC_DESIGN_DATE_AND_TIME_ASSIGNMENT ( #11, #9, ( #56 ) ) ;
#162 = DIRECTION ( 'NONE',  ( -0.000000000000000000, -0.000000000000000000, -1.000000000000000000 ) ) ;
#163 = ORIENTED_EDGE ( 'NONE', *, *, #266, .T. ) ;
#164 = MANIFOLD_SOLID_BREP ( 'Zaoblit1', #95 ) ;
#165 =( GEOMETRIC_REPRESENTATION_CONTEXT ( 3 ) GLOBAL_UNCERTAINTY_ASSIGNED_CONTEXT ( ( #5 ) ) GLOBAL_UNIT_ASSIGNED_CONTEXT ( ( #245, #124, #128 ) ) REPRESENTATION_CONTEXT ( 'NONE', 'WORKASPACE' ) );
#166 = ORIENTED_EDGE ( 'NONE', *, *, #218, .T. ) ;
#167 = DIRECTION ( 'NONE',  ( -0.000000000000000000, -0.000000000000000000, -1.000000000000000000 ) ) ;
#168 = AXIS2_PLACEMENT_3D ( 'NONE', #1, #171, #93 ) ;
#169 = CARTESIAN_POINT ( 'NONE',  ( 5.000000000000000888, 6.123233995736767268E-16, 5.200000000000009948 ) ) ;
#170 = DIRECTION ( 'NONE',  ( -1.000000000000000000, 0.000000000000000000, 0.000000000000000000 ) ) ;
#171 = DIRECTION ( 'NONE',  ( -0.000000000000000000, -0.000000000000000000, -1.000000000000000000 ) ) ;
#172 = EDGE_CURVE ( 'NONE', #305, #85, #3, .T. ) ;
#173 = DIRECTION ( 'NONE',  ( 0.000000000000000000, 0.000000000000000000, 1.000000000000000000 ) ) ;
#174 = AXIS2_PLACEMENT_3D ( 'NONE', #200, #125, #240 ) ;
#175 = DIRECTION ( 'NONE',  ( 1.000000000000000000, 0.000000000000000000, 0.000000000000000000 ) ) ;
#176 = CC_DESIGN_PERSON_AND_ORGANIZATION_ASSIGNMENT ( #223, #247, ( #56 ) ) ;
#177 = PERSON_AND_ORGANIZATION_ROLE ( 'design_owner' ) ;
#178 = DIRECTION ( 'NONE',  ( -1.000000000000000000, 0.000000000000000000, 0.000000000000000000 ) ) ;
#179 = PLANE ( 'NONE',  #230 ) ;
#180 = APPROVAL_PERSON_ORGANIZATION ( #249, #235, #39 ) ;
#181 = MECHANICAL_CONTEXT ( 'NONE', #48, 'mechanical' ) ;
#182 = PERSON_AND_ORGANIZATION_ROLE ( 'classification_officer' ) ;
#183 = CIRCLE ( 'NONE', #168, 5.200000000000001066 ) ;
#184 = CALENDAR_DATE ( 2022, 3, 11 ) ;
#185 = ORIENTED_EDGE ( 'NONE', *, *, #228, .F. ) ;
#186 = AXIS2_PLACEMENT_3D ( 'NONE', #71, #49, #170 ) ;
#187 = PERSON_AND_ORGANIZATION ( #92, #126 ) ;
#188 = ORIENTED_EDGE ( 'NONE', *, *, #228, .T. ) ;
#189 = CARTESIAN_POINT ( 'NONE',  ( 0.000000000000000000, 0.000000000000000000, 5.000000000000000000 ) ) ;
#190 = ORIENTED_EDGE ( 'NONE', *, *, #89, .F. ) ;
#191 = PRODUCT_DEFINITION_FORMATION_WITH_SPECIFIED_SOURCE ( 'LIBOVOLNÝ', '', #134, .NOT_KNOWN. ) ;
#192 = DIRECTION ( 'NONE',  ( -0.000000000000000000, -0.000000000000000000, -1.000000000000000000 ) ) ;
#193 = FACE_BOUND ( 'NONE', #45, .T. ) ;
#194 = VECTOR ( 'NONE', #283, 1000.000000000000000 ) ;
#195 = CARTESIAN_POINT ( 'NONE',  ( 0.000000000000000000, 0.000000000000000000, 5.000000000000000000 ) ) ;
#196 = DIRECTION ( 'NONE',  ( 1.000000000000000000, 0.000000000000000000, 0.000000000000000000 ) ) ;
#197 = CARTESIAN_POINT ( 'NONE',  ( 8.000000000000000000, 9.797174393178825657E-16, 5.000000000000000000 ) ) ;
#198 = COORDINATED_UNIVERSAL_TIME_OFFSET ( 1, 0, .AHEAD. ) ;
#199 = DIRECTION ( 'NONE',  ( -0.000000000000000000, -0.000000000000000000, -1.000000000000000000 ) ) ;
#200 = CARTESIAN_POINT ( 'NONE',  ( 0.000000000000000000, 0.000000000000000000, 158.0000000000000000 ) ) ;
#201 = COORDINATED_UNIVERSAL_TIME_OFFSET ( 1, 0, .AHEAD. ) ;
#202 = PERSON_AND_ORGANIZATION ( #92, #126 ) ;
#203 = ORIENTED_EDGE ( 'NONE', *, *, #46, .F. ) ;
#204 = AXIS2_PLACEMENT_3D ( 'NONE', #74, #94, #196 ) ;
#205 = CALENDAR_DATE ( 2022, 3, 11 ) ;
#206 = ADVANCED_FACE ( 'NONE', ( #256 ), #118, .T. ) ;
#207 = ORIENTED_EDGE ( 'NONE', *, *, #10, .F. ) ;
#208 = LOCAL_TIME ( 11, 43, 13.00000000000000000, #298 ) ;
#209 = VERTEX_POINT ( 'NONE', #259 ) ;
#210 = ORIENTED_EDGE ( 'NONE', *, *, #34, .T. ) ;
#211 = ORIENTED_EDGE ( 'NONE', *, *, #107, .F. ) ;
#212 = FACE_OUTER_BOUND ( 'NONE', #304, .T. ) ;
#213 = DIRECTION ( 'NONE',  ( 1.224646799147353207E-16, 1.000000000000000000, -0.000000000000000000 ) ) ;
#214 = APPROVAL ( #30, 'NEURÈENÝ' ) ;
#215 = CARTESIAN_POINT ( 'NONE',  ( 0.000000000000000000, 0.000000000000000000, 0.000000000000000000 ) ) ;
#216 = AXIS2_PLACEMENT_3D ( 'NONE', #32, #152, #149 ) ;
#217 = DIRECTION ( 'NONE',  ( 1.000000000000000000, 0.000000000000000000, -0.000000000000000000 ) ) ;
#218 = EDGE_CURVE ( 'NONE', #85, #113, #65, .T. ) ;
#219 = DIRECTION ( 'NONE',  ( 1.000000000000000000, 0.000000000000000000, 0.000000000000000000 ) ) ;
#220 = FACE_OUTER_BOUND ( 'NONE', #273, .T. ) ;
#221 = AXIS2_PLACEMENT_3D ( 'NONE', #54, #26, #233 ) ;
#222 = CARTESIAN_POINT ( 'NONE',  ( 0.000000000000000000, 0.000000000000000000, 0.000000000000000000 ) ) ;
#223 = PERSON_AND_ORGANIZATION ( #92, #126 ) ;
#224 = ADVANCED_FACE ( 'NONE', ( #236 ), #129, .T. ) ;
#225 = EDGE_LOOP ( 'NONE', ( #254, #60, #64, #188 ) ) ;
#226 = DATE_AND_TIME ( #205, #44 ) ;
#227 = FACE_OUTER_BOUND ( 'NONE', #38, .T. ) ;
#228 = EDGE_CURVE ( 'NONE', #113, #85, #70, .T. ) ;
#229 = ORIENTED_EDGE ( 'NONE', *, *, #140, .T. ) ;
#230 = AXIS2_PLACEMENT_3D ( 'NONE', #222, #291, #244 ) ;
#231 = ORIENTED_EDGE ( 'NONE', *, *, #251, .F. ) ;
#232 = ORIENTED_EDGE ( 'NONE', *, *, #89, .T. ) ;
#233 = DIRECTION ( 'NONE',  ( -1.000000000000000000, 0.000000000000000000, 0.000000000000000000 ) ) ;
#234 = CARTESIAN_POINT ( 'NONE',  ( 0.000000000000000000, 0.000000000000000000, 5.200000000000009948 ) ) ;
#235 = APPROVAL ( #156, 'NEURÈENÝ' ) ;
#236 = FACE_OUTER_BOUND ( 'NONE', #278, .T. ) ;
#237 = PLANE ( 'NONE',  #241 ) ;
#238 = CC_DESIGN_PERSON_AND_ORGANIZATION_ASSIGNMENT ( #77, #177, ( #134 ) ) ;
#239 = DIRECTION ( 'NONE',  ( -0.000000000000000000, -0.000000000000000000, -1.000000000000000000 ) ) ;
#240 = DIRECTION ( 'NONE',  ( 1.000000000000000000, 0.000000000000000000, 0.000000000000000000 ) ) ;
#241 = AXIS2_PLACEMENT_3D ( 'NONE', #122, #28, #217 ) ;
#242 = CIRCLE ( 'NONE', #69, 8.000000000000000000 ) ;
#243 = CIRCLE ( 'NONE', #174, 5.000000000000000888 ) ;
#244 = DIRECTION ( 'NONE',  ( 1.000000000000000000, 0.000000000000000000, -0.000000000000000000 ) ) ;
#245 =( LENGTH_UNIT ( ) NAMED_UNIT ( * ) SI_UNIT ( .MILLI., .METRE. ) );
#246 = LINE ( 'NONE', #98, #147 ) ;
#247 = PERSON_AND_ORGANIZATION_ROLE ( 'creator' ) ;
#248 = ORIENTED_EDGE ( 'NONE', *, *, #257, .T. ) ;
#249 = PERSON_AND_ORGANIZATION ( #92, #126 ) ;
#250 = CARTESIAN_POINT ( 'NONE',  ( -8.000000000000000000, 0.000000000000000000, 0.000000000000000000 ) ) ;
#251 = EDGE_CURVE ( 'NONE', #209, #111, #31, .T. ) ;
#252 = ORIENTED_EDGE ( 'NONE', *, *, #33, .F. ) ;
#253 = AXIS2_PLACEMENT_3D ( 'NONE', #96, #115, #145 ) ;
#254 = ORIENTED_EDGE ( 'NONE', *, *, #172, .F. ) ;
#255 = ORIENTED_EDGE ( 'NONE', *, *, #251, .T. ) ;
#256 = FACE_OUTER_BOUND ( 'NONE', #225, .T. ) ;
#257 = EDGE_CURVE ( 'NONE', #85, #157, #86, .T. ) ;
#258 = LINE ( 'NONE', #197, #194 ) ;
#259 = CARTESIAN_POINT ( 'NONE',  ( -8.000000000000000000, 0.000000000000000000, 5.000000000000000000 ) ) ;
#260 = ADVANCED_FACE ( 'NONE', ( #270 ), #179, .F. ) ;
#261 = DIRECTION ( 'NONE',  ( 1.000000000000000000, 0.000000000000000000, 0.000000000000000000 ) ) ;
#262 = PRODUCT_RELATED_PRODUCT_CATEGORY ( 'detail', '', ( #134 ) ) ;
#263 = DIRECTION ( 'NONE',  ( 1.000000000000000000, 0.000000000000000000, 0.000000000000000000 ) ) ;
#264 = LOCAL_TIME ( 11, 43, 13.00000000000000000, #198 ) ;
#265 = APPLICATION_PROTOCOL_DEFINITION ( 'international standard', 'config_control_design', 1994, #48 ) ;
#266 = EDGE_CURVE ( 'NONE', #12, #305, #243, .T. ) ;
#267 = DIRECTION ( 'NONE',  ( -0.000000000000000000, -0.000000000000000000, -1.000000000000000000 ) ) ;
#268 = CC_DESIGN_APPROVAL ( #120, ( #191 ) ) ;
#269 = VECTOR ( 'NONE', #239, 1000.000000000000000 ) ;
#270 = FACE_OUTER_BOUND ( 'NONE', #43, .T. ) ;
#271 = CC_DESIGN_DATE_AND_TIME_ASSIGNMENT ( #61, #277, ( #36 ) ) ;
#272 = APPROVAL_DATE_TIME ( #226, #235 ) ;
#273 = EDGE_LOOP ( 'NONE', ( #185, #40, #211, #18 ) ) ;
#274 = SECURITY_CLASSIFICATION_LEVEL ( 'unclassified' ) ;
#275 = AXIS2_PLACEMENT_3D ( 'NONE', #127, #199, #178 ) ;
#276 = DIRECTION ( 'NONE',  ( 0.000000000000000000, 0.000000000000000000, 1.000000000000000000 ) ) ;
#277 = DATE_TIME_ROLE ( 'classification_date' ) ;
#278 = EDGE_LOOP ( 'NONE', ( #281, #131, #166, #139 ) ) ;
#279 = EDGE_LOOP ( 'NONE', ( #138, #106, #248, #252 ) ) ;
#280 = AXIS2_PLACEMENT_3D ( 'NONE', #59, #29, #58 ) ;
#281 = ORIENTED_EDGE ( 'NONE', *, *, #34, .F. ) ;
#282 = ADVANCED_BREP_SHAPE_REPRESENTATION ( '900f', ( #164, #158 ), #165 ) ;
#283 = DIRECTION ( 'NONE',  ( -0.000000000000000000, -0.000000000000000000, -1.000000000000000000 ) ) ;
#284 = FACE_OUTER_BOUND ( 'NONE', #47, .T. ) ;
#285 = CIRCLE ( 'NONE', #14, 0.1999999999999996503 ) ;
#286 = CARTESIAN_POINT ( 'NONE',  ( 0.000000000000000000, 0.000000000000000000, 5.000000000000000000 ) ) ;
#287 = VECTOR ( 'NONE', #167, 1000.000000000000000 ) ;
#288 = DIRECTION ( 'NONE',  ( 0.000000000000000000, 0.000000000000000000, 1.000000000000000000 ) ) ;
#289 = PLANE ( 'NONE',  #143 ) ;
#290 = CARTESIAN_POINT ( 'NONE',  ( 5.000000000000000888, 6.123233995736767268E-16, 158.0000000000000000 ) ) ;
#291 = DIRECTION ( 'NONE',  ( 0.000000000000000000, 0.000000000000000000, 1.000000000000000000 ) ) ;
#292 = CALENDAR_DATE ( 2022, 3, 11 ) ;
#293 = CARTESIAN_POINT ( 'NONE',  ( 0.000000000000000000, 0.000000000000000000, 5.000000000000000000 ) ) ;
#294 = EDGE_CURVE ( 'NONE', #12, #113, #246, .T. ) ;
#295 = CC_DESIGN_APPROVAL ( #214, ( #56 ) ) ;
#296 = ADVANCED_FACE ( 'NONE', ( #220 ), #50, .F. ) ;
#297 = PERSON_AND_ORGANIZATION_ROLE ( 'creator' ) ;
#298 = COORDINATED_UNIVERSAL_TIME_OFFSET ( 1, 0, .AHEAD. ) ;
#299 = VERTEX_POINT ( 'NONE', #81 ) ;
#300 = CALENDAR_DATE ( 2022, 3, 11 ) ;
#301 = APPROVAL_PERSON_ORGANIZATION ( #159, #120, #37 ) ;
#302 = ORIENTED_EDGE ( 'NONE', *, *, #72, .F. ) ;
#303 = ORIENTED_EDGE ( 'NONE', *, *, #33, .T. ) ;
#304 = EDGE_LOOP ( 'NONE', ( #207, #232, #17, #133 ) ) ;
#305 = VERTEX_POINT ( 'NONE', #290 ) ;
#306 = CARTESIAN_POINT ( 'NONE',  ( -5.000000000000000888, 0.000000000000000000, 5.200000000000009948 ) ) ;
#307 = CARTESIAN_POINT ( 'NONE',  ( 8.000000000000000000, 9.797174393178825657E-16, 0.000000000000000000 ) ) ;
ENDSEC;
END-ISO-10303-21;
