ISO-10303-21;
HEADER;
FILE_DESCRIPTION (( 'STEP AP203' ),
    '1' );
FILE_NAME ('9ccb.STEP',
    '2022-07-07T10:05:37',
    ( '' ),
    ( '' ),
    'SwSTEP 2.0',
    'SolidWorks 2019',
    '' );
FILE_SCHEMA (( 'CONFIG_CONTROL_DESIGN' ));
ENDSEC;

DATA;
#1 = PLANE ( 'NONE',  #182 ) ;
#2 = EDGE_CURVE ( 'NONE', #78, #169, #60, .T. ) ;
#3 = VERTEX_POINT ( 'NONE', #172 ) ;
#4 = DIRECTION ( 'NONE',  ( 0.000000000000000000, 0.000000000000000000, 1.000000000000000000 ) ) ;
#5 = DIRECTION ( 'NONE',  ( 0.000000000000000000, 0.000000000000000000, 1.000000000000000000 ) ) ;
#6 = AXIS2_PLACEMENT_3D ( 'NONE', #135, #216, #156 ) ;
#7 = EDGE_CURVE ( 'NONE', #188, #171, #151, .T. ) ;
#8 = CARTESIAN_POINT ( 'NONE',  ( 0.000000000000000000, 0.000000000000000000, 0.000000000000000000 ) ) ;
#9 = DESIGN_CONTEXT ( 'detailed design', #244, 'design' ) ;
#10 = LINE ( 'NONE', #264, #199 ) ;
#11 = ORGANIZATION ( 'NEURÈENÝ', 'NEURÈENÝ', '' ) ;
#12 = DIRECTION ( 'NONE',  ( -0.000000000000000000, -0.000000000000000000, -1.000000000000000000 ) ) ;
#13 = CARTESIAN_POINT ( 'NONE',  ( 0.000000000000000000, 0.000000000000000000, 165.0000000000000000 ) ) ;
#14 = AXIS2_PLACEMENT_3D ( 'NONE', #140, #4, #142 ) ;
#15 = CIRCLE ( 'NONE', #72, 6.000000000000000888 ) ;
#16 = EDGE_CURVE ( 'NONE', #169, #47, #259, .T. ) ;
#17 = DIRECTION ( 'NONE',  ( 0.000000000000000000, 0.000000000000000000, 1.000000000000000000 ) ) ;
#18 = PERSON_AND_ORGANIZATION ( #157, #11 ) ;
#19 = CC_DESIGN_DATE_AND_TIME_ASSIGNMENT ( #44, #88, ( #236 ) ) ;
#20 = LINE ( 'NONE', #101, #191 ) ;
#21 = PERSON_AND_ORGANIZATION ( #157, #11 ) ;
#22 = CARTESIAN_POINT ( 'NONE',  ( 0.000000000000000000, 0.000000000000000000, 165.0000000000000000 ) ) ;
#23 = EDGE_LOOP ( 'NONE', ( #54, #146, #33, #210 ) ) ;
#24 = PERSON_AND_ORGANIZATION ( #157, #11 ) ;
#25 = ORIENTED_EDGE ( 'NONE', *, *, #111, .T. ) ;
#26 = EDGE_CURVE ( 'NONE', #78, #3, #208, .T. ) ;
#27 = CIRCLE ( 'NONE', #66, 3.750000000000000000 ) ;
#28 = ORIENTED_EDGE ( 'NONE', *, *, #7, .T. ) ;
#29 = AXIS2_PLACEMENT_3D ( 'NONE', #13, #193, #79 ) ;
#30 = DIRECTION ( 'NONE',  ( -0.000000000000000000, -0.000000000000000000, -1.000000000000000000 ) ) ;
#31 = EDGE_LOOP ( 'NONE', ( #206, #258 ) ) ;
#32 = ORIENTED_EDGE ( 'NONE', *, *, #2, .F. ) ;
#33 = ORIENTED_EDGE ( 'NONE', *, *, #26, .T. ) ;
#34 = CARTESIAN_POINT ( 'NONE',  ( -3.949999999999999734, 4.837354856632044071E-16, 5.000000000000005329 ) ) ;
#35 = CARTESIAN_POINT ( 'NONE',  ( -3.949999999999999734, 4.837354856632044071E-16, 5.200000000000009948 ) ) ;
#36 = CARTESIAN_POINT ( 'NONE',  ( 3.750000000000000000, 4.592425496802573972E-16, 165.0000000000000000 ) ) ;
#37 = DIRECTION ( 'NONE',  ( -1.000000000000000000, 0.000000000000000000, 0.000000000000000000 ) ) ;
#38 = DIRECTION ( 'NONE',  ( 1.000000000000000000, 0.000000000000000000, 0.000000000000000000 ) ) ;
#39 = EDGE_CURVE ( 'NONE', #253, #262, #167, .T. ) ;
#40 = CYLINDRICAL_SURFACE ( 'NONE', #6, 6.000000000000000888 ) ;
#41 = PRODUCT_RELATED_PRODUCT_CATEGORY ( 'detail', '', ( #224 ) ) ;
#42 = APPROVAL_ROLE ( '' ) ;
#43 = VECTOR ( 'NONE', #109, 1000.000000000000000 ) ;
#44 = DATE_AND_TIME ( #67, #272 ) ;
#45 = CARTESIAN_POINT ( 'NONE',  ( 3.949999999999999734, 0.000000000000000000, 5.200000000000009948 ) ) ;
#46 = DIRECTION ( 'NONE',  ( 0.000000000000000000, 0.000000000000000000, 1.000000000000000000 ) ) ;
#47 = VERTEX_POINT ( 'NONE', #34 ) ;
#48 = AXIS2_PLACEMENT_3D ( 'NONE', #288, #303, #189 ) ;
#49 = APPROVAL_ROLE ( '' ) ;
#50 = CARTESIAN_POINT ( 'NONE',  ( 0.000000000000000000, 0.000000000000000000, 5.000000000000000000 ) ) ;
#51 = ADVANCED_FACE ( 'NONE', ( #235 ), #81, .F. ) ;
#52 = AXIS2_PLACEMENT_3D ( 'NONE', #108, #85, #196 ) ;
#53 = ORIENTED_EDGE ( 'NONE', *, *, #298, .F. ) ;
#54 = ORIENTED_EDGE ( 'NONE', *, *, #39, .F. ) ;
#55 = CARTESIAN_POINT ( 'NONE',  ( 0.000000000000000000, 0.000000000000000000, 165.0000000000000000 ) ) ;
#56 = CARTESIAN_POINT ( 'NONE',  ( -6.000000000000000888, 0.000000000000000000, 5.000000000000000000 ) ) ;
#57 = AXIS2_PLACEMENT_3D ( 'NONE', #90, #185, #213 ) ;
#58 = FACE_OUTER_BOUND ( 'NONE', #31, .T. ) ;
#59 = FACE_OUTER_BOUND ( 'NONE', #74, .T. ) ;
#60 = CIRCLE ( 'NONE', #95, 0.1999999999999996503 ) ;
#61 = FACE_OUTER_BOUND ( 'NONE', #127, .T. ) ;
#62 = AXIS2_PLACEMENT_3D ( 'NONE', #218, #195, #247 ) ;
#63 = PERSON_AND_ORGANIZATION_ROLE ( 'design_owner' ) ;
#64 = CALENDAR_DATE ( 2022, 7, 7 ) ;
#65 = EDGE_CURVE ( 'NONE', #125, #304, #239, .T. ) ;
#66 = AXIS2_PLACEMENT_3D ( 'NONE', #93, #103, #124 ) ;
#67 = CALENDAR_DATE ( 2022, 7, 7 ) ;
#68 = APPROVAL_STATUS ( 'not_yet_approved' ) ;
#69 = ORIENTED_EDGE ( 'NONE', *, *, #39, .T. ) ;
#70 = DATE_AND_TIME ( #64, #204 ) ;
#71 = CARTESIAN_POINT ( 'NONE',  ( 0.000000000000000000, 0.000000000000000000, 0.000000000000000000 ) ) ;
#72 = AXIS2_PLACEMENT_3D ( 'NONE', #105, #84, #38 ) ;
#73 = CC_DESIGN_PERSON_AND_ORGANIZATION_ASSIGNMENT ( #24, #297, ( #236 ) ) ;
#74 = EDGE_LOOP ( 'NONE', ( #150, #147, #286, #149 ) ) ;
#75 = ORIENTED_EDGE ( 'NONE', *, *, #153, .F. ) ;
#76 = DIRECTION ( 'NONE',  ( 1.000000000000000000, 0.000000000000000000, 0.000000000000000000 ) ) ;
#77 = ADVANCED_FACE ( 'NONE', ( #289 ), #203, .T. ) ;
#78 = VERTEX_POINT ( 'NONE', #228 ) ;
#79 = DIRECTION ( 'NONE',  ( -1.000000000000000000, 0.000000000000000000, 0.000000000000000000 ) ) ;
#80 = CC_DESIGN_PERSON_AND_ORGANIZATION_ASSIGNMENT ( #18, #89, ( #178 ) ) ;
#81 = TOROIDAL_SURFACE ( 'NONE', #57, 3.949999999999999734, 0.2000000000000000111 ) ;
#82 = CIRCLE ( 'NONE', #231, 0.1999999999999996503 ) ;
#83 = CARTESIAN_POINT ( 'NONE',  ( 0.000000000000000000, 0.000000000000000000, 5.200000000000009948 ) ) ;
#84 = DIRECTION ( 'NONE',  ( 0.000000000000000000, 0.000000000000000000, 1.000000000000000000 ) ) ;
#85 = DIRECTION ( 'NONE',  ( -0.000000000000000000, -0.000000000000000000, -1.000000000000000000 ) ) ;
#86 = CALENDAR_DATE ( 2022, 7, 7 ) ;
#87 = PERSON_AND_ORGANIZATION ( #157, #11 ) ;
#88 = DATE_TIME_ROLE ( 'creation_date' ) ;
#89 = PERSON_AND_ORGANIZATION_ROLE ( 'design_supplier' ) ;
#90 = CARTESIAN_POINT ( 'NONE',  ( 0.000000000000000000, 0.000000000000000000, 5.200000000000009948 ) ) ;
#91 = AXIS2_PLACEMENT_3D ( 'NONE', #176, #154, #293 ) ;
#92 = APPROVAL_ROLE ( '' ) ;
#93 = CARTESIAN_POINT ( 'NONE',  ( 0.000000000000000000, 0.000000000000000000, 165.0000000000000000 ) ) ;
#94 = APPROVAL ( #279, 'NEURÈENÝ' ) ;
#95 = AXIS2_PLACEMENT_3D ( 'NONE', #45, #170, #285 ) ;
#96 = EDGE_CURVE ( 'NONE', #304, #125, #133, .T. ) ;
#97 = TOROIDAL_SURFACE ( 'NONE', #113, 3.949999999999999734, 0.2000000000000000111 ) ;
#98 = EDGE_CURVE ( 'NONE', #262, #253, #27, .T. ) ;
#99 = CARTESIAN_POINT ( 'NONE',  ( 0.000000000000000000, 0.000000000000000000, 5.000000000000000000 ) ) ;
#100 = ORIENTED_EDGE ( 'NONE', *, *, #65, .F. ) ;
#101 = CARTESIAN_POINT ( 'NONE',  ( -3.750000000000000000, 0.000000000000000000, 165.0000000000000000 ) ) ;
#102 = AXIS2_PLACEMENT_3D ( 'NONE', #8, #242, #271 ) ;
#103 = DIRECTION ( 'NONE',  ( 0.000000000000000000, 0.000000000000000000, 1.000000000000000000 ) ) ;
#104 = LINE ( 'NONE', #243, #43 ) ;
#105 = CARTESIAN_POINT ( 'NONE',  ( 0.000000000000000000, 0.000000000000000000, 0.000000000000000000 ) ) ;
#106 = APPROVAL_PERSON_ORGANIZATION ( #207, #278, #42 ) ;
#107 = CYLINDRICAL_SURFACE ( 'NONE', #62, 6.000000000000000888 ) ;
#108 = CARTESIAN_POINT ( 'NONE',  ( 0.000000000000000000, 0.000000000000000000, 5.000000000000000000 ) ) ;
#109 = DIRECTION ( 'NONE',  ( -0.000000000000000000, -0.000000000000000000, -1.000000000000000000 ) ) ;
#110 = AXIS2_PLACEMENT_3D ( 'NONE', #50, #166, #232 ) ;
#111 = EDGE_CURVE ( 'NONE', #262, #3, #20, .T. ) ;
#112 = MECHANICAL_CONTEXT ( 'NONE', #225, 'mechanical' ) ;
#113 = AXIS2_PLACEMENT_3D ( 'NONE', #83, #295, #177 ) ;
#114 = DATE_AND_TIME ( #254, #267 ) ;
#115 = DATE_AND_TIME ( #86, #261 ) ;
#116 = CARTESIAN_POINT ( 'NONE',  ( 6.000000000000000888, 7.347880794884120722E-16, 5.000000000000000000 ) ) ;
#117 = ADVANCED_FACE ( 'NONE', ( #128, #263 ), #1, .T. ) ;
#118 = PERSON_AND_ORGANIZATION ( #157, #11 ) ;
#119 = DIRECTION ( 'NONE',  ( 0.000000000000000000, 0.000000000000000000, 1.000000000000000000 ) ) ;
#120 = ORIENTED_EDGE ( 'NONE', *, *, #65, .T. ) ;
#121 = COORDINATED_UNIVERSAL_TIME_OFFSET ( 1, 0, .AHEAD. ) ;
#122 = ORIENTED_EDGE ( 'NONE', *, *, #161, .T. ) ;
#123 = ORIENTED_EDGE ( 'NONE', *, *, #168, .T. ) ;
#124 = DIRECTION ( 'NONE',  ( 1.000000000000000000, 0.000000000000000000, 0.000000000000000000 ) ) ;
#125 = VERTEX_POINT ( 'NONE', #116 ) ;
#126 = ORIENTED_EDGE ( 'NONE', *, *, #16, .T. ) ;
#127 = EDGE_LOOP ( 'NONE', ( #53, #186, #187, #122 ) ) ;
#128 = FACE_BOUND ( 'NONE', #183, .T. ) ;
#129 = CARTESIAN_POINT ( 'NONE',  ( -6.000000000000000888, 0.000000000000000000, 0.000000000000000000 ) ) ;
#130 = UNCERTAINTY_MEASURE_WITH_UNIT (LENGTH_MEASURE( 1.000000000000000082E-05 ), #268, 'distance_accuracy_value', 'NONE');
#131 = ADVANCED_FACE ( 'NONE', ( #240 ), #221, .T. ) ;
#132 =( NAMED_UNIT ( * ) PLANE_ANGLE_UNIT ( ) SI_UNIT ( $, .RADIAN. ) );
#133 = CIRCLE ( 'NONE', #110, 6.000000000000000888 ) ;
#134 = APPROVAL_PERSON_ORGANIZATION ( #184, #212, #92 ) ;
#135 = CARTESIAN_POINT ( 'NONE',  ( 0.000000000000000000, 0.000000000000000000, 5.000000000000000000 ) ) ;
#136 = CYLINDRICAL_SURFACE ( 'NONE', #234, 3.750000000000000000 ) ;
#137 = DIRECTION ( 'NONE',  ( 1.000000000000000000, 0.000000000000000000, 0.000000000000000000 ) ) ;
#138 = CC_DESIGN_APPROVAL ( #94, ( #236 ) ) ;
#139 = DATE_AND_TIME ( #275, #209 ) ;
#140 = CARTESIAN_POINT ( 'NONE',  ( 0.000000000000000000, 0.000000000000000000, 5.000000000000000000 ) ) ;
#141 = APPROVAL_DATE_TIME ( #114, #94 ) ;
#142 = DIRECTION ( 'NONE',  ( 1.000000000000000000, 0.000000000000000000, 0.000000000000000000 ) ) ;
#143 = AXIS2_PLACEMENT_3D ( 'NONE', #71, #164, #205 ) ;
#144 = MANIFOLD_SOLID_BREP ( 'Zaoblit1', #300 ) ;
#145 = ORIENTED_EDGE ( 'NONE', *, *, #16, .F. ) ;
#146 = ORIENTED_EDGE ( 'NONE', *, *, #287, .T. ) ;
#147 = ORIENTED_EDGE ( 'NONE', *, *, #26, .F. ) ;
#148 = DIRECTION ( 'NONE',  ( 1.000000000000000000, 0.000000000000000000, 0.000000000000000000 ) ) ;
#149 = ORIENTED_EDGE ( 'NONE', *, *, #168, .F. ) ;
#150 = ORIENTED_EDGE ( 'NONE', *, *, #215, .F. ) ;
#151 = CIRCLE ( 'NONE', #143, 6.000000000000000888 ) ;
#152 = DIRECTION ( 'NONE',  ( -0.000000000000000000, -0.000000000000000000, -1.000000000000000000 ) ) ;
#153 = EDGE_CURVE ( 'NONE', #304, #171, #104, .T. ) ;
#154 = DIRECTION ( 'NONE',  ( 0.000000000000000000, 0.000000000000000000, 1.000000000000000000 ) ) ;
#155 = ADVANCED_FACE ( 'NONE', ( #61 ), #107, .T. ) ;
#156 = DIRECTION ( 'NONE',  ( -1.000000000000000000, 0.000000000000000000, 0.000000000000000000 ) ) ;
#157 = PERSON ( 'NEURÈENÝ', 'NEURÈENÝ', 'NEURÈENÝ', ('NEURÈENÝ'), ('NEURÈENÝ'), ('NEURÈENÝ') ) ;
#158 = FACE_OUTER_BOUND ( 'NONE', #233, .T. ) ;
#159 = APPROVAL_DATE_TIME ( #70, #278 ) ;
#160 = DATE_TIME_ROLE ( 'classification_date' ) ;
#161 = EDGE_CURVE ( 'NONE', #171, #188, #15, .T. ) ;
#162 = SECURITY_CLASSIFICATION ( '', '', #181 ) ;
#163 = APPLICATION_PROTOCOL_DEFINITION ( 'international standard', 'config_control_design', 1994, #244 ) ;
#164 = DIRECTION ( 'NONE',  ( 0.000000000000000000, 0.000000000000000000, 1.000000000000000000 ) ) ;
#165 = COORDINATED_UNIVERSAL_TIME_OFFSET ( 1, 0, .AHEAD. ) ;
#166 = DIRECTION ( 'NONE',  ( 0.000000000000000000, 0.000000000000000000, 1.000000000000000000 ) ) ;
#167 = CIRCLE ( 'NONE', #198, 3.750000000000000000 ) ;
#168 = EDGE_CURVE ( 'NONE', #47, #169, #241, .T. ) ;
#169 = VERTEX_POINT ( 'NONE', #197 ) ;
#170 = DIRECTION ( 'NONE',  ( 0.000000000000000000, -1.000000000000000000, 0.000000000000000000 ) ) ;
#171 = VERTEX_POINT ( 'NONE', #129 ) ;
#172 = CARTESIAN_POINT ( 'NONE',  ( -3.750000000000000000, 0.000000000000000000, 5.200000000000009948 ) ) ;
#173 = CARTESIAN_POINT ( 'NONE',  ( -3.750000000000000000, 0.000000000000000000, 165.0000000000000000 ) ) ;
#174 = DIRECTION ( 'NONE',  ( 1.224646799147353207E-16, 1.000000000000000000, -0.000000000000000000 ) ) ;
#175 = CC_DESIGN_APPROVAL ( #278, ( #178 ) ) ;
#176 = CARTESIAN_POINT ( 'NONE',  ( 0.000000000000000000, 0.000000000000000000, 5.200000000000009948 ) ) ;
#177 = DIRECTION ( 'NONE',  ( 1.000000000000000000, 0.000000000000000000, 0.000000000000000000 ) ) ;
#178 = PRODUCT_DEFINITION_FORMATION_WITH_SPECIFIED_SOURCE ( 'LIBOVOLNÝ', '', #224, .NOT_KNOWN. ) ;
#179 = COORDINATED_UNIVERSAL_TIME_OFFSET ( 1, 0, .AHEAD. ) ;
#180 = COORDINATED_UNIVERSAL_TIME_OFFSET ( 1, 0, .AHEAD. ) ;
#181 = SECURITY_CLASSIFICATION_LEVEL ( 'unclassified' ) ;
#182 = AXIS2_PLACEMENT_3D ( 'NONE', #99, #5, #192 ) ;
#183 = EDGE_LOOP ( 'NONE', ( #126, #123 ) ) ;
#184 = PERSON_AND_ORGANIZATION ( #157, #11 ) ;
#185 = DIRECTION ( 'NONE',  ( 0.000000000000000000, 0.000000000000000000, 1.000000000000000000 ) ) ;
#186 = ORIENTED_EDGE ( 'NONE', *, *, #96, .F. ) ;
#187 = ORIENTED_EDGE ( 'NONE', *, *, #153, .T. ) ;
#188 = VERTEX_POINT ( 'NONE', #270 ) ;
#189 = DIRECTION ( 'NONE',  ( 1.000000000000000000, 0.000000000000000000, 0.000000000000000000 ) ) ;
#190 = ORIENTED_EDGE ( 'NONE', *, *, #96, .T. ) ;
#191 = VECTOR ( 'NONE', #30, 1000.000000000000000 ) ;
#192 = DIRECTION ( 'NONE',  ( 1.000000000000000000, 0.000000000000000000, -0.000000000000000000 ) ) ;
#193 = DIRECTION ( 'NONE',  ( -0.000000000000000000, -0.000000000000000000, -1.000000000000000000 ) ) ;
#194 = EDGE_CURVE ( 'NONE', #3, #78, #282, .T. ) ;
#195 = DIRECTION ( 'NONE',  ( -0.000000000000000000, -0.000000000000000000, -1.000000000000000000 ) ) ;
#196 = DIRECTION ( 'NONE',  ( 1.000000000000000000, 0.000000000000000000, 0.000000000000000000 ) ) ;
#197 = CARTESIAN_POINT ( 'NONE',  ( 3.949999999999999734, 0.000000000000000000, 5.000000000000005329 ) ) ;
#198 = AXIS2_PLACEMENT_3D ( 'NONE', #55, #238, #148 ) ;
#199 = VECTOR ( 'NONE', #12, 1000.000000000000000 ) ;
#200 =( NAMED_UNIT ( * ) SI_UNIT ( $, .STERADIAN. ) SOLID_ANGLE_UNIT ( ) );
#201 = PRODUCT_DEFINITION_SHAPE ( 'NONE', 'NONE',  #236 ) ;
#202 = CC_DESIGN_PERSON_AND_ORGANIZATION_ASSIGNMENT ( #87, #63, ( #224 ) ) ;
#203 = PLANE ( 'NONE',  #291 ) ;
#204 = LOCAL_TIME ( 12, 5, 37.00000000000000000, #274 ) ;
#205 = DIRECTION ( 'NONE',  ( 1.000000000000000000, 0.000000000000000000, 0.000000000000000000 ) ) ;
#206 = ORIENTED_EDGE ( 'NONE', *, *, #161, .F. ) ;
#207 = PERSON_AND_ORGANIZATION ( #157, #11 ) ;
#208 = CIRCLE ( 'NONE', #281, 3.750000000000000000 ) ;
#209 = LOCAL_TIME ( 12, 5, 37.00000000000000000, #179 ) ;
#210 = ORIENTED_EDGE ( 'NONE', *, *, #111, .F. ) ;
#211 = EDGE_LOOP ( 'NONE', ( #256, #284, #145, #32 ) ) ;
#212 = APPROVAL ( #226, 'NEURÈENÝ' ) ;
#213 = DIRECTION ( 'NONE',  ( 1.000000000000000000, 0.000000000000000000, 0.000000000000000000 ) ) ;
#214 = ORIENTED_EDGE ( 'NONE', *, *, #194, .T. ) ;
#215 = EDGE_CURVE ( 'NONE', #3, #47, #82, .T. ) ;
#216 = DIRECTION ( 'NONE',  ( -0.000000000000000000, -0.000000000000000000, -1.000000000000000000 ) ) ;
#217 = CARTESIAN_POINT ( 'NONE',  ( 0.000000000000000000, 0.000000000000000000, 165.0000000000000000 ) ) ;
#218 = CARTESIAN_POINT ( 'NONE',  ( 0.000000000000000000, 0.000000000000000000, 5.000000000000000000 ) ) ;
#219 = CC_DESIGN_APPROVAL ( #212, ( #162 ) ) ;
#220 = CARTESIAN_POINT ( 'NONE',  ( 3.750000000000000000, 4.592425496802573972E-16, 165.0000000000000000 ) ) ;
#221 = CYLINDRICAL_SURFACE ( 'NONE', #29, 3.750000000000000000 ) ;
#222 = APPLICATION_PROTOCOL_DEFINITION ( 'international standard', 'config_control_design', 1994, #225 ) ;
#223 = ADVANCED_FACE ( 'NONE', ( #59 ), #97, .F. ) ;
#224 = PRODUCT ( '9ccb', '9ccb', '', ( #112 ) ) ;
#225 = APPLICATION_CONTEXT ( 'configuration controlled 3d designs of mechanical parts and assemblies' ) ;
#226 = APPROVAL_STATUS ( 'not_yet_approved' ) ;
#227 = ADVANCED_FACE ( 'NONE', ( #290 ), #40, .T. ) ;
#228 = CARTESIAN_POINT ( 'NONE',  ( 3.750000000000000000, 4.592425496802573972E-16, 5.200000000000009948 ) ) ;
#229 = PERSON_AND_ORGANIZATION_ROLE ( 'creator' ) ;
#230 = EDGE_LOOP ( 'NONE', ( #190, #120 ) ) ;
#231 = AXIS2_PLACEMENT_3D ( 'NONE', #35, #174, #292 ) ;
#232 = DIRECTION ( 'NONE',  ( 1.000000000000000000, 0.000000000000000000, 0.000000000000000000 ) ) ;
#233 = EDGE_LOOP ( 'NONE', ( #283, #301, #25, #214 ) ) ;
#234 = AXIS2_PLACEMENT_3D ( 'NONE', #217, #152, #37 ) ;
#235 = FACE_OUTER_BOUND ( 'NONE', #211, .T. ) ;
#236 = PRODUCT_DEFINITION ( 'NEZNÁMÝ', '', #178, #9 ) ;
#237 = EDGE_LOOP ( 'NONE', ( #100, #277, #28, #75 ) ) ;
#238 = DIRECTION ( 'NONE',  ( 0.000000000000000000, 0.000000000000000000, 1.000000000000000000 ) ) ;
#239 = CIRCLE ( 'NONE', #14, 6.000000000000000888 ) ;
#240 = FACE_OUTER_BOUND ( 'NONE', #23, .T. ) ;
#241 = CIRCLE ( 'NONE', #52, 3.949999999999999734 ) ;
#242 = DIRECTION ( 'NONE',  ( 0.000000000000000000, 0.000000000000000000, 1.000000000000000000 ) ) ;
#243 = CARTESIAN_POINT ( 'NONE',  ( -6.000000000000000888, 0.000000000000000000, 5.000000000000000000 ) ) ;
#244 = APPLICATION_CONTEXT ( 'configuration controlled 3d designs of mechanical parts and assemblies' ) ;
#245 = DIRECTION ( 'NONE',  ( -0.000000000000000000, -0.000000000000000000, -1.000000000000000000 ) ) ;
#246 = CC_DESIGN_SECURITY_CLASSIFICATION ( #162, ( #178 ) ) ;
#247 = DIRECTION ( 'NONE',  ( -1.000000000000000000, 0.000000000000000000, 0.000000000000000000 ) ) ;
#248 = ADVANCED_BREP_SHAPE_REPRESENTATION ( '9ccb', ( #144, #307 ), #251 ) ;
#249 = SHAPE_DEFINITION_REPRESENTATION ( #201, #248 ) ;
#250 = APPROVAL_DATE_TIME ( #115, #212 ) ;
#251 =( GEOMETRIC_REPRESENTATION_CONTEXT ( 3 ) GLOBAL_UNCERTAINTY_ASSIGNED_CONTEXT ( ( #130 ) ) GLOBAL_UNIT_ASSIGNED_CONTEXT ( ( #268, #132, #200 ) ) REPRESENTATION_CONTEXT ( 'NONE', 'WORKASPACE' ) );
#252 = PERSON_AND_ORGANIZATION ( #157, #11 ) ;
#253 = VERTEX_POINT ( 'NONE', #220 ) ;
#254 = CALENDAR_DATE ( 2022, 7, 7 ) ;
#255 = CARTESIAN_POINT ( 'NONE',  ( 0.000000000000000000, 0.000000000000000000, 5.200000000000009948 ) ) ;
#256 = ORIENTED_EDGE ( 'NONE', *, *, #194, .F. ) ;
#257 = CC_DESIGN_PERSON_AND_ORGANIZATION_ASSIGNMENT ( #21, #299, ( #162 ) ) ;
#258 = ORIENTED_EDGE ( 'NONE', *, *, #7, .F. ) ;
#259 = CIRCLE ( 'NONE', #48, 3.949999999999999734 ) ;
#260 = EDGE_LOOP ( 'NONE', ( #306, #69 ) ) ;
#261 = LOCAL_TIME ( 12, 5, 37.00000000000000000, #165 ) ;
#262 = VERTEX_POINT ( 'NONE', #173 ) ;
#263 = FACE_OUTER_BOUND ( 'NONE', #230, .T. ) ;
#264 = CARTESIAN_POINT ( 'NONE',  ( 6.000000000000000888, 7.347880794884120722E-16, 5.000000000000000000 ) ) ;
#265 = CC_DESIGN_PERSON_AND_ORGANIZATION_ASSIGNMENT ( #252, #229, ( #178 ) ) ;
#266 = LINE ( 'NONE', #36, #296 ) ;
#267 = LOCAL_TIME ( 12, 5, 37.00000000000000000, #180 ) ;
#268 =( LENGTH_UNIT ( ) NAMED_UNIT ( * ) SI_UNIT ( .MILLI., .METRE. ) );
#269 = CC_DESIGN_DATE_AND_TIME_ASSIGNMENT ( #139, #160, ( #162 ) ) ;
#270 = CARTESIAN_POINT ( 'NONE',  ( 6.000000000000000888, 7.347880794884120722E-16, 0.000000000000000000 ) ) ;
#271 = DIRECTION ( 'NONE',  ( 1.000000000000000000, 0.000000000000000000, -0.000000000000000000 ) ) ;
#272 = LOCAL_TIME ( 12, 5, 37.00000000000000000, #121 ) ;
#273 = ADVANCED_FACE ( 'NONE', ( #158 ), #136, .T. ) ;
#274 = COORDINATED_UNIVERSAL_TIME_OFFSET ( 1, 0, .AHEAD. ) ;
#275 = CALENDAR_DATE ( 2022, 7, 7 ) ;
#276 = APPROVAL_PERSON_ORGANIZATION ( #118, #94, #49 ) ;
#277 = ORIENTED_EDGE ( 'NONE', *, *, #298, .T. ) ;
#278 = APPROVAL ( #68, 'NEURÈENÝ' ) ;
#279 = APPROVAL_STATUS ( 'not_yet_approved' ) ;
#280 = DIRECTION ( 'NONE',  ( 1.000000000000000000, 0.000000000000000000, -0.000000000000000000 ) ) ;
#281 = AXIS2_PLACEMENT_3D ( 'NONE', #255, #46, #76 ) ;
#282 = CIRCLE ( 'NONE', #91, 3.750000000000000000 ) ;
#283 = ORIENTED_EDGE ( 'NONE', *, *, #287, .F. ) ;
#284 = ORIENTED_EDGE ( 'NONE', *, *, #215, .T. ) ;
#285 = DIRECTION ( 'NONE',  ( 0.000000000000000000, 0.000000000000000000, -1.000000000000000000 ) ) ;
#286 = ORIENTED_EDGE ( 'NONE', *, *, #2, .T. ) ;
#287 = EDGE_CURVE ( 'NONE', #253, #78, #266, .T. ) ;
#288 = CARTESIAN_POINT ( 'NONE',  ( 0.000000000000000000, 0.000000000000000000, 5.000000000000000000 ) ) ;
#289 = FACE_OUTER_BOUND ( 'NONE', #260, .T. ) ;
#290 = FACE_OUTER_BOUND ( 'NONE', #237, .T. ) ;
#291 = AXIS2_PLACEMENT_3D ( 'NONE', #22, #119, #280 ) ;
#292 = DIRECTION ( 'NONE',  ( -1.000000000000000000, 1.224646799147353454E-16, 0.000000000000000000 ) ) ;
#293 = DIRECTION ( 'NONE',  ( 1.000000000000000000, 0.000000000000000000, 0.000000000000000000 ) ) ;
#294 = PLANE ( 'NONE',  #102 ) ;
#295 = DIRECTION ( 'NONE',  ( 0.000000000000000000, 0.000000000000000000, 1.000000000000000000 ) ) ;
#296 = VECTOR ( 'NONE', #245, 1000.000000000000000 ) ;
#297 = PERSON_AND_ORGANIZATION_ROLE ( 'creator' ) ;
#298 = EDGE_CURVE ( 'NONE', #125, #188, #10, .T. ) ;
#299 = PERSON_AND_ORGANIZATION_ROLE ( 'classification_officer' ) ;
#300 = CLOSED_SHELL ( 'NONE', ( #51, #131, #227, #155, #117, #305, #273, #77, #223 ) ) ;
#301 = ORIENTED_EDGE ( 'NONE', *, *, #98, .F. ) ;
#302 = CARTESIAN_POINT ( 'NONE',  ( 0.000000000000000000, 0.000000000000000000, 0.000000000000000000 ) ) ;
#303 = DIRECTION ( 'NONE',  ( -0.000000000000000000, -0.000000000000000000, -1.000000000000000000 ) ) ;
#304 = VERTEX_POINT ( 'NONE', #56 ) ;
#305 = ADVANCED_FACE ( 'NONE', ( #58 ), #294, .F. ) ;
#306 = ORIENTED_EDGE ( 'NONE', *, *, #98, .T. ) ;
#307 = AXIS2_PLACEMENT_3D ( 'NONE', #302, #17, #137 ) ;
ENDSEC;
END-ISO-10303-21;
