ISO-10303-21;
HEADER;
FILE_DESCRIPTION (( 'STEP AP203' ),
    '1' );
FILE_NAME ('a047.STEP',
    '2023-02-12T12:34:18',
    ( '' ),
    ( '' ),
    'SwSTEP 2.0',
    'SolidWorks 2019',
    '' );
FILE_SCHEMA (( 'CONFIG_CONTROL_DESIGN' ));
ENDSEC;

DATA;
#1 = ORIENTED_EDGE ( 'NONE', *, *, #67, .F. ) ;
#2 = ADVANCED_FACE ( 'NONE', ( #204 ), #224, .T. ) ;
#3 = ORIENTED_EDGE ( 'NONE', *, *, #155, .F. ) ;
#4 = EDGE_LOOP ( 'NONE', ( #3, #187 ) ) ;
#5 = AXIS2_PLACEMENT_3D ( 'NONE', #221, #86, #163 ) ;
#6 = APPLICATION_CONTEXT ( 'configuration controlled 3d designs of mechanical parts and assemblies' ) ;
#7 = LINE ( 'NONE', #168, #242 ) ;
#8 = CARTESIAN_POINT ( 'NONE',  ( 0.000000000000000000, 0.000000000000000000, 3.000000000000000000 ) ) ;
#9 = ADVANCED_BREP_SHAPE_REPRESENTATION ( 'a047', ( #22, #5 ), #196 ) ;
#10 = APPROVAL ( #20, 'NEURÈENÝ' ) ;
#11 = CYLINDRICAL_SURFACE ( 'NONE', #175, 2.250000000000000000 ) ;
#12 = DIRECTION ( 'NONE',  ( 1.000000000000000000, 0.000000000000000000, 0.000000000000000000 ) ) ;
#13 = CARTESIAN_POINT ( 'NONE',  ( 0.000000000000000000, 0.000000000000000000, 3.000000000000000000 ) ) ;
#14 = DIRECTION ( 'NONE',  ( 1.000000000000000000, 0.000000000000000000, -0.000000000000000000 ) ) ;
#15 = APPROVAL_ROLE ( '' ) ;
#16 = CALENDAR_DATE ( 2023, 12, 2 ) ;
#17 = APPROVAL_STATUS ( 'not_yet_approved' ) ;
#18 = ORIENTED_EDGE ( 'NONE', *, *, #180, .T. ) ;
#19 = VERTEX_POINT ( 'NONE', #134 ) ;
#20 = APPROVAL_STATUS ( 'not_yet_approved' ) ;
#21 = ORIENTED_EDGE ( 'NONE', *, *, #180, .F. ) ;
#22 = MANIFOLD_SOLID_BREP ( 'Pøidat vysunutím3', #213 ) ;
#23 = DATE_AND_TIME ( #165, #31 ) ;
#24 = CIRCLE ( 'NONE', #190, 2.250000000000000000 ) ;
#25 = CARTESIAN_POINT ( 'NONE',  ( 0.000000000000000000, 0.000000000000000000, 3.000000000000000000 ) ) ;
#26 = DIRECTION ( 'NONE',  ( 1.000000000000000000, 0.000000000000000000, 0.000000000000000000 ) ) ;
#27 = CARTESIAN_POINT ( 'NONE',  ( 0.000000000000000000, 0.000000000000000000, 100.0000000000000000 ) ) ;
#28 = CC_DESIGN_PERSON_AND_ORGANIZATION_ASSIGNMENT ( #128, #91, ( #146 ) ) ;
#29 = PLANE ( 'NONE',  #216 ) ;
#30 = AXIS2_PLACEMENT_3D ( 'NONE', #13, #154, #14 ) ;
#31 = LOCAL_TIME ( 13, 34, 18.00000000000000000, #42 ) ;
#32 = FACE_BOUND ( 'NONE', #106, .T. ) ;
#33 = ADVANCED_FACE ( 'NONE', ( #152 ), #226, .T. ) ;
#34 = CARTESIAN_POINT ( 'NONE',  ( -4.000000000000000000, 0.000000000000000000, 3.000000000000000000 ) ) ;
#35 = CARTESIAN_POINT ( 'NONE',  ( 0.000000000000000000, 0.000000000000000000, 0.000000000000000000 ) ) ;
#36 = ORIENTED_EDGE ( 'NONE', *, *, #96, .F. ) ;
#37 = ORIENTED_EDGE ( 'NONE', *, *, #206, .F. ) ;
#38 = EDGE_CURVE ( 'NONE', #147, #85, #24, .T. ) ;
#39 = ORIENTED_EDGE ( 'NONE', *, *, #208, .T. ) ;
#40 = PERSON_AND_ORGANIZATION ( #164, #237 ) ;
#41 = DIRECTION ( 'NONE',  ( 0.000000000000000000, 0.000000000000000000, 1.000000000000000000 ) ) ;
#42 = COORDINATED_UNIVERSAL_TIME_OFFSET ( 1, 0, .AHEAD. ) ;
#43 = DIRECTION ( 'NONE',  ( -0.000000000000000000, -0.000000000000000000, -1.000000000000000000 ) ) ;
#44 = EDGE_CURVE ( 'NONE', #79, #85, #247, .T. ) ;
#45 = DIRECTION ( 'NONE',  ( 0.000000000000000000, 0.000000000000000000, 1.000000000000000000 ) ) ;
#46 = CARTESIAN_POINT ( 'NONE',  ( 0.000000000000000000, 0.000000000000000000, 3.000000000000000000 ) ) ;
#47 = DIRECTION ( 'NONE',  ( 1.000000000000000000, 0.000000000000000000, 0.000000000000000000 ) ) ;
#48 = CIRCLE ( 'NONE', #95, 4.000000000000000000 ) ;
#49 = DESIGN_CONTEXT ( 'detailed design', #6, 'design' ) ;
#50 = CC_DESIGN_DATE_AND_TIME_ASSIGNMENT ( #23, #243, ( #173 ) ) ;
#51 = DIRECTION ( 'NONE',  ( -1.000000000000000000, 0.000000000000000000, 0.000000000000000000 ) ) ;
#52 = CC_DESIGN_DATE_AND_TIME_ASSIGNMENT ( #81, #53, ( #70 ) ) ;
#53 = DATE_TIME_ROLE ( 'creation_date' ) ;
#54 = EDGE_CURVE ( 'NONE', #85, #147, #201, .T. ) ;
#55 = COORDINATED_UNIVERSAL_TIME_OFFSET ( 1, 0, .AHEAD. ) ;
#56 = COORDINATED_UNIVERSAL_TIME_OFFSET ( 1, 0, .AHEAD. ) ;
#57 = ORIENTED_EDGE ( 'NONE', *, *, #80, .F. ) ;
#58 = PERSON_AND_ORGANIZATION_ROLE ( 'design_owner' ) ;
#59 = AXIS2_PLACEMENT_3D ( 'NONE', #93, #195, #12 ) ;
#60 = AXIS2_PLACEMENT_3D ( 'NONE', #46, #43, #62 ) ;
#61 = ORIENTED_EDGE ( 'NONE', *, *, #245, .F. ) ;
#62 = DIRECTION ( 'NONE',  ( -1.000000000000000000, 0.000000000000000000, 0.000000000000000000 ) ) ;
#63 = DATE_AND_TIME ( #108, #117 ) ;
#64 = CC_DESIGN_APPROVAL ( #194, ( #70 ) ) ;
#65 = DIRECTION ( 'NONE',  ( -0.000000000000000000, -0.000000000000000000, -1.000000000000000000 ) ) ;
#66 = SECURITY_CLASSIFICATION_LEVEL ( 'unclassified' ) ;
#67 = EDGE_CURVE ( 'NONE', #179, #19, #99, .T. ) ;
#68 = SHAPE_DEFINITION_REPRESENTATION ( #110, #9 ) ;
#69 = DIRECTION ( 'NONE',  ( 0.000000000000000000, 0.000000000000000000, 1.000000000000000000 ) ) ;
#70 = PRODUCT_DEFINITION ( 'NEZNÁMÝ', '', #146, #49 ) ;
#71 = LINE ( 'NONE', #34, #75 ) ;
#72 = CARTESIAN_POINT ( 'NONE',  ( 4.000000000000000000, 4.898587196589412829E-16, 3.000000000000000000 ) ) ;
#73 = DIRECTION ( 'NONE',  ( -1.000000000000000000, 0.000000000000000000, 0.000000000000000000 ) ) ;
#74 = DIRECTION ( 'NONE',  ( -1.000000000000000000, 0.000000000000000000, 0.000000000000000000 ) ) ;
#75 = VECTOR ( 'NONE', #211, 1000.000000000000000 ) ;
#76 = AXIS2_PLACEMENT_3D ( 'NONE', #8, #113, #47 ) ;
#77 = PRODUCT_RELATED_PRODUCT_CATEGORY ( 'detail', '', ( #189 ) ) ;
#78 = CARTESIAN_POINT ( 'NONE',  ( 0.000000000000000000, 0.000000000000000000, 0.000000000000000000 ) ) ;
#79 = VERTEX_POINT ( 'NONE', #209 ) ;
#80 = EDGE_CURVE ( 'NONE', #179, #186, #7, .T. ) ;
#81 = DATE_AND_TIME ( #142, #191 ) ;
#82 = ORIENTED_EDGE ( 'NONE', *, *, #67, .T. ) ;
#83 = CIRCLE ( 'NONE', #137, 4.000000000000000000 ) ;
#84 = MECHANICAL_CONTEXT ( 'NONE', #252, 'mechanical' ) ;
#85 = VERTEX_POINT ( 'NONE', #232 ) ;
#86 = DIRECTION ( 'NONE',  ( 0.000000000000000000, 0.000000000000000000, 1.000000000000000000 ) ) ;
#87 = CIRCLE ( 'NONE', #59, 2.250000000000000000 ) ;
#88 = PERSON_AND_ORGANIZATION_ROLE ( 'design_supplier' ) ;
#89 = LINE ( 'NONE', #167, #145 ) ;
#90 = DIRECTION ( 'NONE',  ( 1.000000000000000000, 0.000000000000000000, 0.000000000000000000 ) ) ;
#91 = PERSON_AND_ORGANIZATION_ROLE ( 'creator' ) ;
#92 = DIRECTION ( 'NONE',  ( 0.000000000000000000, 0.000000000000000000, 1.000000000000000000 ) ) ;
#93 = CARTESIAN_POINT ( 'NONE',  ( 0.000000000000000000, 0.000000000000000000, 100.0000000000000000 ) ) ;
#94 =( NAMED_UNIT ( * ) PLANE_ANGLE_UNIT ( ) SI_UNIT ( $, .RADIAN. ) );
#95 = AXIS2_PLACEMENT_3D ( 'NONE', #139, #120, #97 ) ;
#96 = EDGE_CURVE ( 'NONE', #185, #147, #89, .T. ) ;
#97 = DIRECTION ( 'NONE',  ( 1.000000000000000000, 0.000000000000000000, 0.000000000000000000 ) ) ;
#98 = DIRECTION ( 'NONE',  ( -0.000000000000000000, -0.000000000000000000, -1.000000000000000000 ) ) ;
#99 = CIRCLE ( 'NONE', #172, 4.000000000000000000 ) ;
#100 = CC_DESIGN_APPROVAL ( #143, ( #146 ) ) ;
#101 = CC_DESIGN_PERSON_AND_ORGANIZATION_ASSIGNMENT ( #161, #159, ( #70 ) ) ;
#102 = PERSON_AND_ORGANIZATION ( #164, #237 ) ;
#103 = ORIENTED_EDGE ( 'NONE', *, *, #38, .T. ) ;
#104 = CC_DESIGN_PERSON_AND_ORGANIZATION_ASSIGNMENT ( #40, #188, ( #173 ) ) ;
#105 = ORIENTED_EDGE ( 'NONE', *, *, #245, .T. ) ;
#106 = EDGE_LOOP ( 'NONE', ( #240, #160 ) ) ;
#107 = EDGE_LOOP ( 'NONE', ( #39, #82 ) ) ;
#108 = CALENDAR_DATE ( 2023, 12, 2 ) ;
#109 = ORIENTED_EDGE ( 'NONE', *, *, #44, .T. ) ;
#110 = PRODUCT_DEFINITION_SHAPE ( 'NONE', 'NONE',  #70 ) ;
#111 = CIRCLE ( 'NONE', #219, 2.250000000000000000 ) ;
#112 = CARTESIAN_POINT ( 'NONE',  ( -2.250000000000000000, 0.000000000000000000, 100.0000000000000000 ) ) ;
#113 = DIRECTION ( 'NONE',  ( 0.000000000000000000, 0.000000000000000000, 1.000000000000000000 ) ) ;
#114 = CARTESIAN_POINT ( 'NONE',  ( 0.000000000000000000, 0.000000000000000000, 3.000000000000000000 ) ) ;
#115 = CARTESIAN_POINT ( 'NONE',  ( 4.000000000000000000, 4.898587196589412829E-16, 0.000000000000000000 ) ) ;
#116 = LOCAL_TIME ( 13, 34, 18.00000000000000000, #177 ) ;
#117 = LOCAL_TIME ( 13, 34, 18.00000000000000000, #169 ) ;
#118 = UNCERTAINTY_MEASURE_WITH_UNIT (LENGTH_MEASURE( 1.000000000000000082E-05 ), #176, 'distance_accuracy_value', 'NONE');
#119 = DIRECTION ( 'NONE',  ( 0.000000000000000000, 0.000000000000000000, 1.000000000000000000 ) ) ;
#120 = DIRECTION ( 'NONE',  ( 0.000000000000000000, 0.000000000000000000, 1.000000000000000000 ) ) ;
#121 = ADVANCED_FACE ( 'NONE', ( #246 ), #29, .F. ) ;
#122 = PERSON_AND_ORGANIZATION ( #164, #237 ) ;
#123 = ORIENTED_EDGE ( 'NONE', *, *, #206, .T. ) ;
#124 = ADVANCED_FACE ( 'NONE', ( #132 ), #207, .T. ) ;
#125 = VERTEX_POINT ( 'NONE', #250 ) ;
#126 = EDGE_CURVE ( 'NONE', #186, #125, #149, .T. ) ;
#127 = ORIENTED_EDGE ( 'NONE', *, *, #96, .T. ) ;
#128 = PERSON_AND_ORGANIZATION ( #164, #237 ) ;
#129 = EDGE_LOOP ( 'NONE', ( #57, #218, #18, #241 ) ) ;
#130 = DIRECTION ( 'NONE',  ( 1.000000000000000000, 0.000000000000000000, -0.000000000000000000 ) ) ;
#131 = APPROVAL_PERSON_ORGANIZATION ( #122, #194, #15 ) ;
#132 = FACE_OUTER_BOUND ( 'NONE', #158, .T. ) ;
#133 = PERSON_AND_ORGANIZATION ( #164, #237 ) ;
#134 = CARTESIAN_POINT ( 'NONE',  ( -4.000000000000000000, 0.000000000000000000, 3.000000000000000000 ) ) ;
#135 = DIRECTION ( 'NONE',  ( 0.000000000000000000, 0.000000000000000000, 1.000000000000000000 ) ) ;
#136 = DIRECTION ( 'NONE',  ( 1.000000000000000000, 0.000000000000000000, 0.000000000000000000 ) ) ;
#137 = AXIS2_PLACEMENT_3D ( 'NONE', #78, #212, #197 ) ;
#138 = FACE_OUTER_BOUND ( 'NONE', #107, .T. ) ;
#139 = CARTESIAN_POINT ( 'NONE',  ( 0.000000000000000000, 0.000000000000000000, 3.000000000000000000 ) ) ;
#140 = PERSON_AND_ORGANIZATION ( #164, #237 ) ;
#141 = AXIS2_PLACEMENT_3D ( 'NONE', #114, #98, #73 ) ;
#142 = CALENDAR_DATE ( 2023, 12, 2 ) ;
#143 = APPROVAL ( #17, 'NEURÈENÝ' ) ;
#144 = EDGE_LOOP ( 'NONE', ( #61, #127, #103, #202 ) ) ;
#145 = VECTOR ( 'NONE', #228, 1000.000000000000000 ) ;
#146 = PRODUCT_DEFINITION_FORMATION_WITH_SPECIFIED_SOURCE ( 'LIBOVOLNÝ', '', #189, .NOT_KNOWN. ) ;
#147 = VERTEX_POINT ( 'NONE', #253 ) ;
#148 = CARTESIAN_POINT ( 'NONE',  ( 0.000000000000000000, 0.000000000000000000, 100.0000000000000000 ) ) ;
#149 = CIRCLE ( 'NONE', #236, 4.000000000000000000 ) ;
#150 = LOCAL_TIME ( 13, 34, 18.00000000000000000, #56 ) ;
#151 = APPROVAL_DATE_TIME ( #248, #143 ) ;
#152 = FACE_OUTER_BOUND ( 'NONE', #182, .T. ) ;
#153 = CARTESIAN_POINT ( 'NONE',  ( 0.000000000000000000, 0.000000000000000000, 100.0000000000000000 ) ) ;
#154 = DIRECTION ( 'NONE',  ( 0.000000000000000000, 0.000000000000000000, 1.000000000000000000 ) ) ;
#155 = EDGE_CURVE ( 'NONE', #125, #186, #83, .T. ) ;
#156 = CYLINDRICAL_SURFACE ( 'NONE', #141, 4.000000000000000000 ) ;
#157 = CC_DESIGN_PERSON_AND_ORGANIZATION_ASSIGNMENT ( #230, #88, ( #146 ) ) ;
#158 = EDGE_LOOP ( 'NONE', ( #36, #37, #109, #162 ) ) ;
#159 = PERSON_AND_ORGANIZATION_ROLE ( 'creator' ) ;
#160 = ORIENTED_EDGE ( 'NONE', *, *, #38, .F. ) ;
#161 = PERSON_AND_ORGANIZATION ( #164, #237 ) ;
#162 = ORIENTED_EDGE ( 'NONE', *, *, #54, .T. ) ;
#163 = DIRECTION ( 'NONE',  ( 1.000000000000000000, 0.000000000000000000, 0.000000000000000000 ) ) ;
#164 = PERSON ( 'NEURÈENÝ', 'NEURÈENÝ', 'NEURÈENÝ', ('NEURÈENÝ'), ('NEURÈENÝ'), ('NEURÈENÝ') ) ;
#165 = CALENDAR_DATE ( 2023, 12, 2 ) ;
#166 = CALENDAR_DATE ( 2023, 12, 2 ) ;
#167 = CARTESIAN_POINT ( 'NONE',  ( 2.250000000000000000, 2.755455298081543792E-16, 100.0000000000000000 ) ) ;
#168 = CARTESIAN_POINT ( 'NONE',  ( 4.000000000000000000, 4.898587196589412829E-16, 3.000000000000000000 ) ) ;
#169 = COORDINATED_UNIVERSAL_TIME_OFFSET ( 1, 0, .AHEAD. ) ;
#170 = CARTESIAN_POINT ( 'NONE',  ( 0.000000000000000000, 0.000000000000000000, 0.000000000000000000 ) ) ;
#171 = DIRECTION ( 'NONE',  ( -0.000000000000000000, -0.000000000000000000, -1.000000000000000000 ) ) ;
#172 = AXIS2_PLACEMENT_3D ( 'NONE', #192, #41, #90 ) ;
#173 = SECURITY_CLASSIFICATION ( '', '', #66 ) ;
#174 = FACE_OUTER_BOUND ( 'NONE', #235, .T. ) ;
#175 = AXIS2_PLACEMENT_3D ( 'NONE', #193, #233, #74 ) ;
#176 =( LENGTH_UNIT ( ) NAMED_UNIT ( * ) SI_UNIT ( .MILLI., .METRE. ) );
#177 = COORDINATED_UNIVERSAL_TIME_OFFSET ( 1, 0, .AHEAD. ) ;
#178 = APPLICATION_PROTOCOL_DEFINITION ( 'international standard', 'config_control_design', 1994, #252 ) ;
#179 = VERTEX_POINT ( 'NONE', #72 ) ;
#180 = EDGE_CURVE ( 'NONE', #19, #125, #71, .T. ) ;
#181 = APPROVAL_DATE_TIME ( #255, #194 ) ;
#182 = EDGE_LOOP ( 'NONE', ( #123, #105 ) ) ;
#183 = CC_DESIGN_SECURITY_CLASSIFICATION ( #173, ( #146 ) ) ;
#184 = APPLICATION_PROTOCOL_DEFINITION ( 'international standard', 'config_control_design', 1994, #6 ) ;
#185 = VERTEX_POINT ( 'NONE', #215 ) ;
#186 = VERTEX_POINT ( 'NONE', #115 ) ;
#187 = ORIENTED_EDGE ( 'NONE', *, *, #126, .F. ) ;
#188 = PERSON_AND_ORGANIZATION_ROLE ( 'classification_officer' ) ;
#189 = PRODUCT ( 'a047', 'a047', '', ( #84 ) ) ;
#190 = AXIS2_PLACEMENT_3D ( 'NONE', #25, #69, #26 ) ;
#191 = LOCAL_TIME ( 13, 34, 18.00000000000000000, #55 ) ;
#192 = CARTESIAN_POINT ( 'NONE',  ( 0.000000000000000000, 0.000000000000000000, 3.000000000000000000 ) ) ;
#193 = CARTESIAN_POINT ( 'NONE',  ( 0.000000000000000000, 0.000000000000000000, 100.0000000000000000 ) ) ;
#194 = APPROVAL ( #200, 'NEURÈENÝ' ) ;
#195 = DIRECTION ( 'NONE',  ( 0.000000000000000000, 0.000000000000000000, 1.000000000000000000 ) ) ;
#196 =( GEOMETRIC_REPRESENTATION_CONTEXT ( 3 ) GLOBAL_UNCERTAINTY_ASSIGNED_CONTEXT ( ( #118 ) ) GLOBAL_UNIT_ASSIGNED_CONTEXT ( ( #176, #94, #205 ) ) REPRESENTATION_CONTEXT ( 'NONE', 'WORKASPACE' ) );
#197 = DIRECTION ( 'NONE',  ( 1.000000000000000000, 0.000000000000000000, 0.000000000000000000 ) ) ;
#198 = DIRECTION ( 'NONE',  ( 1.000000000000000000, 0.000000000000000000, 0.000000000000000000 ) ) ;
#199 = FACE_OUTER_BOUND ( 'NONE', #144, .T. ) ;
#200 = APPROVAL_STATUS ( 'not_yet_approved' ) ;
#201 = CIRCLE ( 'NONE', #76, 2.250000000000000000 ) ;
#202 = ORIENTED_EDGE ( 'NONE', *, *, #44, .F. ) ;
#203 = ADVANCED_FACE ( 'NONE', ( #32, #138 ), #214, .T. ) ;
#204 = FACE_OUTER_BOUND ( 'NONE', #129, .T. ) ;
#205 =( NAMED_UNIT ( * ) SI_UNIT ( $, .STERADIAN. ) SOLID_ANGLE_UNIT ( ) );
#206 = EDGE_CURVE ( 'NONE', #79, #185, #111, .T. ) ;
#207 = CYLINDRICAL_SURFACE ( 'NONE', #251, 2.250000000000000000 ) ;
#208 = EDGE_CURVE ( 'NONE', #19, #179, #48, .T. ) ;
#209 = CARTESIAN_POINT ( 'NONE',  ( -2.250000000000000000, 0.000000000000000000, 100.0000000000000000 ) ) ;
#210 = ADVANCED_FACE ( 'NONE', ( #199 ), #11, .T. ) ;
#211 = DIRECTION ( 'NONE',  ( -0.000000000000000000, -0.000000000000000000, -1.000000000000000000 ) ) ;
#212 = DIRECTION ( 'NONE',  ( 0.000000000000000000, 0.000000000000000000, 1.000000000000000000 ) ) ;
#213 = CLOSED_SHELL ( 'NONE', ( #210, #229, #2, #203, #121, #124, #33 ) ) ;
#214 = PLANE ( 'NONE',  #30 ) ;
#215 = CARTESIAN_POINT ( 'NONE',  ( 2.250000000000000000, 2.755455298081543792E-16, 100.0000000000000000 ) ) ;
#216 = AXIS2_PLACEMENT_3D ( 'NONE', #170, #45, #249 ) ;
#217 = CC_DESIGN_APPROVAL ( #10, ( #173 ) ) ;
#218 = ORIENTED_EDGE ( 'NONE', *, *, #208, .F. ) ;
#219 = AXIS2_PLACEMENT_3D ( 'NONE', #153, #119, #198 ) ;
#220 = VECTOR ( 'NONE', #244, 1000.000000000000000 ) ;
#221 = CARTESIAN_POINT ( 'NONE',  ( 0.000000000000000000, 0.000000000000000000, 0.000000000000000000 ) ) ;
#222 = ORIENTED_EDGE ( 'NONE', *, *, #80, .T. ) ;
#223 = APPROVAL_ROLE ( '' ) ;
#224 = CYLINDRICAL_SURFACE ( 'NONE', #60, 4.000000000000000000 ) ;
#225 = APPROVAL_DATE_TIME ( #63, #10 ) ;
#226 = PLANE ( 'NONE',  #234 ) ;
#227 = APPROVAL_PERSON_ORGANIZATION ( #133, #10, #223 ) ;
#228 = DIRECTION ( 'NONE',  ( -0.000000000000000000, -0.000000000000000000, -1.000000000000000000 ) ) ;
#229 = ADVANCED_FACE ( 'NONE', ( #174 ), #156, .T. ) ;
#230 = PERSON_AND_ORGANIZATION ( #164, #237 ) ;
#231 = CC_DESIGN_PERSON_AND_ORGANIZATION_ASSIGNMENT ( #102, #58, ( #189 ) ) ;
#232 = CARTESIAN_POINT ( 'NONE',  ( -2.250000000000000000, 0.000000000000000000, 3.000000000000000000 ) ) ;
#233 = DIRECTION ( 'NONE',  ( -0.000000000000000000, -0.000000000000000000, -1.000000000000000000 ) ) ;
#234 = AXIS2_PLACEMENT_3D ( 'NONE', #148, #92, #130 ) ;
#235 = EDGE_LOOP ( 'NONE', ( #1, #222, #238, #21 ) ) ;
#236 = AXIS2_PLACEMENT_3D ( 'NONE', #35, #135, #136 ) ;
#237 = ORGANIZATION ( 'NEURÈENÝ', 'NEURÈENÝ', '' ) ;
#238 = ORIENTED_EDGE ( 'NONE', *, *, #126, .T. ) ;
#239 = APPROVAL_ROLE ( '' ) ;
#240 = ORIENTED_EDGE ( 'NONE', *, *, #54, .F. ) ;
#241 = ORIENTED_EDGE ( 'NONE', *, *, #155, .T. ) ;
#242 = VECTOR ( 'NONE', #65, 1000.000000000000000 ) ;
#243 = DATE_TIME_ROLE ( 'classification_date' ) ;
#244 = DIRECTION ( 'NONE',  ( -0.000000000000000000, -0.000000000000000000, -1.000000000000000000 ) ) ;
#245 = EDGE_CURVE ( 'NONE', #185, #79, #87, .T. ) ;
#246 = FACE_OUTER_BOUND ( 'NONE', #4, .T. ) ;
#247 = LINE ( 'NONE', #112, #220 ) ;
#248 = DATE_AND_TIME ( #166, #150 ) ;
#249 = DIRECTION ( 'NONE',  ( 1.000000000000000000, 0.000000000000000000, -0.000000000000000000 ) ) ;
#250 = CARTESIAN_POINT ( 'NONE',  ( -4.000000000000000000, 0.000000000000000000, 0.000000000000000000 ) ) ;
#251 = AXIS2_PLACEMENT_3D ( 'NONE', #27, #171, #51 ) ;
#252 = APPLICATION_CONTEXT ( 'configuration controlled 3d designs of mechanical parts and assemblies' ) ;
#253 = CARTESIAN_POINT ( 'NONE',  ( 2.250000000000000000, 2.755455298081543792E-16, 3.000000000000000000 ) ) ;
#254 = APPROVAL_PERSON_ORGANIZATION ( #140, #143, #239 ) ;
#255 = DATE_AND_TIME ( #16, #116 ) ;
ENDSEC;
END-ISO-10303-21;
