ISO-10303-21;
HEADER;
FILE_DESCRIPTION (( 'STEP AP203' ),
    '1' );
FILE_NAME ('3eca.STEP',
    '2022-07-07T10:29:05',
    ( '' ),
    ( '' ),
    'SwSTEP 2.0',
    'SolidWorks 2019',
    '' );
FILE_SCHEMA (( 'CONFIG_CONTROL_DESIGN' ));
ENDSEC;

DATA;
#1 = DIRECTION ( 'NONE',  ( -1.000000000000000000, 0.000000000000000000, 0.000000000000000000 ) ) ;
#2 = AXIS2_PLACEMENT_3D ( 'NONE', #89, #287, #46 ) ;
#3 = APPROVAL_STATUS ( 'not_yet_approved' ) ;
#4 = FACE_OUTER_BOUND ( 'NONE', #71, .T. ) ;
#5 = CIRCLE ( 'NONE', #179, 3.000000000000000444 ) ;
#6 = EDGE_CURVE ( 'NONE', #283, #38, #20, .T. ) ;
#7 = CALENDAR_DATE ( 2022, 7, 7 ) ;
#8 = EDGE_LOOP ( 'NONE', ( #35, #13, #106, #135 ) ) ;
#9 = PERSON_AND_ORGANIZATION_ROLE ( 'design_owner' ) ;
#10 = CIRCLE ( 'NONE', #181, 1.800000000000000266 ) ;
#11 = CC_DESIGN_APPROVAL ( #303, ( #216 ) ) ;
#12 = ORIENTED_EDGE ( 'NONE', *, *, #76, .F. ) ;
#13 = ORIENTED_EDGE ( 'NONE', *, *, #228, .F. ) ;
#14 = CARTESIAN_POINT ( 'NONE',  ( 0.000000000000000000, 0.000000000000000000, 0.000000000000000000 ) ) ;
#15 = CARTESIAN_POINT ( 'NONE',  ( -3.000000000000000444, 0.000000000000000000, 3.000000000000000000 ) ) ;
#16 = DIRECTION ( 'NONE',  ( 1.000000000000000000, 0.000000000000000000, 0.000000000000000000 ) ) ;
#17 = CIRCLE ( 'NONE', #245, 1.600000000000000089 ) ;
#18 = DIRECTION ( 'NONE',  ( -0.000000000000000000, -0.000000000000000000, -1.000000000000000000 ) ) ;
#19 = APPROVAL_ROLE ( '' ) ;
#20 = CIRCLE ( 'NONE', #70, 1.600000000000000089 ) ;
#21 = ORIENTED_EDGE ( 'NONE', *, *, #115, .T. ) ;
#22 = PERSON_AND_ORGANIZATION ( #269, #50 ) ;
#23 = CYLINDRICAL_SURFACE ( 'NONE', #2, 1.600000000000000089 ) ;
#24 = DIRECTION ( 'NONE',  ( 1.000000000000000000, 0.000000000000000000, 0.000000000000000000 ) ) ;
#25 = ADVANCED_FACE ( 'NONE', ( #213 ), #81, .F. ) ;
#26 = FACE_OUTER_BOUND ( 'NONE', #229, .T. ) ;
#27 = CARTESIAN_POINT ( 'NONE',  ( 1.800000000000000266, 0.000000000000000000, 3.199999999999980638 ) ) ;
#28 = DATE_AND_TIME ( #7, #166 ) ;
#29 = CARTESIAN_POINT ( 'NONE',  ( 0.000000000000000000, 0.000000000000000000, 503.0000000000000000 ) ) ;
#30 = APPROVAL_STATUS ( 'not_yet_approved' ) ;
#31 = PERSON_AND_ORGANIZATION_ROLE ( 'design_supplier' ) ;
#32 = APPROVAL_PERSON_ORGANIZATION ( #22, #201, #41 ) ;
#33 = EDGE_CURVE ( 'NONE', #206, #283, #58, .T. ) ;
#34 = CIRCLE ( 'NONE', #186, 3.000000000000000444 ) ;
#35 = ORIENTED_EDGE ( 'NONE', *, *, #115, .F. ) ;
#36 = MANIFOLD_SOLID_BREP ( 'Zaoblit1', #217 ) ;
#37 = DIRECTION ( 'NONE',  ( 1.000000000000000000, 0.000000000000000000, 0.000000000000000000 ) ) ;
#38 = VERTEX_POINT ( 'NONE', #57 ) ;
#39 = ORIENTED_EDGE ( 'NONE', *, *, #82, .F. ) ;
#40 = LOCAL_TIME ( 12, 29, 5.000000000000000000, #257 ) ;
#41 = APPROVAL_ROLE ( '' ) ;
#42 = DIRECTION ( 'NONE',  ( 0.000000000000000000, 0.000000000000000000, 1.000000000000000000 ) ) ;
#43 = PERSON_AND_ORGANIZATION ( #269, #50 ) ;
#44 = CARTESIAN_POINT ( 'NONE',  ( 3.000000000000000444, 3.673940397442060361E-16, 3.000000000000000000 ) ) ;
#45 = DATE_AND_TIME ( #196, #112 ) ;
#46 = DIRECTION ( 'NONE',  ( -1.000000000000000000, 0.000000000000000000, 0.000000000000000000 ) ) ;
#47 = DIRECTION ( 'NONE',  ( 1.000000000000000000, 0.000000000000000000, 0.000000000000000000 ) ) ;
#48 = CARTESIAN_POINT ( 'NONE',  ( 1.800000000000000266, 0.000000000000000000, 2.999999999999990674 ) ) ;
#49 = DIRECTION ( 'NONE',  ( -0.000000000000000000, -0.000000000000000000, -1.000000000000000000 ) ) ;
#50 = ORGANIZATION ( 'NEURÈENÝ', 'NEURÈENÝ', '' ) ;
#51 = CALENDAR_DATE ( 2022, 7, 7 ) ;
#52 = EDGE_CURVE ( 'NONE', #100, #96, #253, .T. ) ;
#53 = VECTOR ( 'NONE', #74, 1000.000000000000000 ) ;
#54 = ORIENTED_EDGE ( 'NONE', *, *, #279, .T. ) ;
#55 = VERTEX_POINT ( 'NONE', #258 ) ;
#56 = VECTOR ( 'NONE', #296, 1000.000000000000000 ) ;
#57 = CARTESIAN_POINT ( 'NONE',  ( 1.600000000000000089, 1.959434878635765230E-16, 3.199999999999980638 ) ) ;
#58 = LINE ( 'NONE', #160, #194 ) ;
#59 = DIRECTION ( 'NONE',  ( 1.000000000000000000, 0.000000000000000000, 0.000000000000000000 ) ) ;
#60 = DIRECTION ( 'NONE',  ( 1.000000000000000000, 0.000000000000000000, -0.000000000000000000 ) ) ;
#61 = CYLINDRICAL_SURFACE ( 'NONE', #101, 3.000000000000000444 ) ;
#62 = AXIS2_PLACEMENT_3D ( 'NONE', #110, #91, #60 ) ;
#63 = DIRECTION ( 'NONE',  ( 0.000000000000000000, 0.000000000000000000, 1.000000000000000000 ) ) ;
#64 = DIRECTION ( 'NONE',  ( 0.000000000000000000, 0.000000000000000000, 1.000000000000000000 ) ) ;
#65 = DIRECTION ( 'NONE',  ( -0.000000000000000000, -0.000000000000000000, -1.000000000000000000 ) ) ;
#66 = PERSON_AND_ORGANIZATION_ROLE ( 'creator' ) ;
#67 = AXIS2_PLACEMENT_3D ( 'NONE', #220, #241, #1 ) ;
#68 = APPROVAL_DATE_TIME ( #45, #226 ) ;
#69 = ADVANCED_FACE ( 'NONE', ( #162 ), #254, .F. ) ;
#70 = AXIS2_PLACEMENT_3D ( 'NONE', #108, #133, #59 ) ;
#71 = EDGE_LOOP ( 'NONE', ( #152, #204 ) ) ;
#72 = ADVANCED_BREP_SHAPE_REPRESENTATION ( '3eca', ( #36, #249 ), #149 ) ;
#73 = TOROIDAL_SURFACE ( 'NONE', #261, 1.800000000000000266, 0.2000000000000000111 ) ;
#74 = DIRECTION ( 'NONE',  ( -0.000000000000000000, -0.000000000000000000, -1.000000000000000000 ) ) ;
#75 = FACE_OUTER_BOUND ( 'NONE', #276, .T. ) ;
#76 = EDGE_CURVE ( 'NONE', #55, #96, #5, .T. ) ;
#77 = DIRECTION ( 'NONE',  ( 1.000000000000000000, 0.000000000000000000, 0.000000000000000000 ) ) ;
#78 = ORIENTED_EDGE ( 'NONE', *, *, #86, .T. ) ;
#79 = AXIS2_PLACEMENT_3D ( 'NONE', #192, #244, #215 ) ;
#80 = SHAPE_DEFINITION_REPRESENTATION ( #111, #72 ) ;
#81 = PLANE ( 'NONE',  #116 ) ;
#82 = EDGE_CURVE ( 'NONE', #255, #100, #280, .T. ) ;
#83 = DIRECTION ( 'NONE',  ( 0.000000000000000000, 0.000000000000000000, 1.000000000000000000 ) ) ;
#84 = CYLINDRICAL_SURFACE ( 'NONE', #270, 1.600000000000000089 ) ;
#85 = CARTESIAN_POINT ( 'NONE',  ( 0.000000000000000000, 0.000000000000000000, 0.000000000000000000 ) ) ;
#86 = EDGE_CURVE ( 'NONE', #38, #283, #293, .T. ) ;
#87 = CARTESIAN_POINT ( 'NONE',  ( 0.000000000000000000, 0.000000000000000000, 3.000000000000000000 ) ) ;
#88 = EDGE_CURVE ( 'NONE', #184, #206, #158, .T. ) ;
#89 = CARTESIAN_POINT ( 'NONE',  ( 0.000000000000000000, 0.000000000000000000, 503.0000000000000000 ) ) ;
#90 = PERSON_AND_ORGANIZATION ( #269, #50 ) ;
#91 = DIRECTION ( 'NONE',  ( 0.000000000000000000, 0.000000000000000000, 1.000000000000000000 ) ) ;
#92 = COORDINATED_UNIVERSAL_TIME_OFFSET ( 1, 0, .AHEAD. ) ;
#93 = ORIENTED_EDGE ( 'NONE', *, *, #76, .T. ) ;
#94 = CALENDAR_DATE ( 2022, 7, 7 ) ;
#95 = LOCAL_TIME ( 12, 29, 5.000000000000000000, #109 ) ;
#96 = VERTEX_POINT ( 'NONE', #234 ) ;
#97 = APPLICATION_CONTEXT ( 'configuration controlled 3d designs of mechanical parts and assemblies' ) ;
#98 = EDGE_LOOP ( 'NONE', ( #274, #12 ) ) ;
#99 = ORIENTED_EDGE ( 'NONE', *, *, #52, .F. ) ;
#100 = VERTEX_POINT ( 'NONE', #15 ) ;
#101 = AXIS2_PLACEMENT_3D ( 'NONE', #146, #119, #289 ) ;
#102 = LINE ( 'NONE', #207, #56 ) ;
#103 = CC_DESIGN_DATE_AND_TIME_ASSIGNMENT ( #139, #198, ( #178 ) ) ;
#104 = CARTESIAN_POINT ( 'NONE',  ( 0.000000000000000000, 0.000000000000000000, 3.199999999999980638 ) ) ;
#105 = APPROVAL_PERSON_ORGANIZATION ( #90, #226, #19 ) ;
#106 = ORIENTED_EDGE ( 'NONE', *, *, #33, .T. ) ;
#107 = CALENDAR_DATE ( 2022, 7, 7 ) ;
#108 = CARTESIAN_POINT ( 'NONE',  ( 0.000000000000000000, 0.000000000000000000, 3.199999999999980638 ) ) ;
#109 = COORDINATED_UNIVERSAL_TIME_OFFSET ( 1, 0, .AHEAD. ) ;
#110 = CARTESIAN_POINT ( 'NONE',  ( 0.000000000000000000, 0.000000000000000000, 3.000000000000000000 ) ) ;
#111 = PRODUCT_DEFINITION_SHAPE ( 'NONE', 'NONE',  #216 ) ;
#112 = LOCAL_TIME ( 12, 29, 5.000000000000000000, #92 ) ;
#113 = FACE_OUTER_BOUND ( 'NONE', #302, .T. ) ;
#114 = AXIS2_PLACEMENT_3D ( 'NONE', #137, #180, #37 ) ;
#115 = EDGE_CURVE ( 'NONE', #184, #38, #102, .T. ) ;
#116 = AXIS2_PLACEMENT_3D ( 'NONE', #182, #282, #157 ) ;
#117 = APPLICATION_CONTEXT ( 'configuration controlled 3d designs of mechanical parts and assemblies' ) ;
#118 = DIRECTION ( 'NONE',  ( 1.000000000000000000, 0.000000000000000000, 0.000000000000000000 ) ) ;
#119 = DIRECTION ( 'NONE',  ( -0.000000000000000000, -0.000000000000000000, -1.000000000000000000 ) ) ;
#120 = DATE_TIME_ROLE ( 'creation_date' ) ;
#121 = DIRECTION ( 'NONE',  ( 0.000000000000000000, 0.000000000000000000, 1.000000000000000000 ) ) ;
#122 = MECHANICAL_CONTEXT ( 'NONE', #97, 'mechanical' ) ;
#123 =( LENGTH_UNIT ( ) NAMED_UNIT ( * ) SI_UNIT ( .MILLI., .METRE. ) );
#124 = PERSON_AND_ORGANIZATION_ROLE ( 'classification_officer' ) ;
#125 = CC_DESIGN_PERSON_AND_ORGANIZATION_ASSIGNMENT ( #292, #9, ( #262 ) ) ;
#126 = LOCAL_TIME ( 12, 29, 5.000000000000000000, #193 ) ;
#127 = ORIENTED_EDGE ( 'NONE', *, *, #88, .F. ) ;
#128 = DESIGN_CONTEXT ( 'detailed design', #117, 'design' ) ;
#129 = CIRCLE ( 'NONE', #173, 1.800000000000000266 ) ;
#130 = ORIENTED_EDGE ( 'NONE', *, *, #291, .F. ) ;
#131 = DIRECTION ( 'NONE',  ( 0.000000000000000000, 0.000000000000000000, 1.000000000000000000 ) ) ;
#132 = ADVANCED_FACE ( 'NONE', ( #75 ), #73, .F. ) ;
#133 = DIRECTION ( 'NONE',  ( 0.000000000000000000, 0.000000000000000000, 1.000000000000000000 ) ) ;
#134 = CC_DESIGN_DATE_AND_TIME_ASSIGNMENT ( #28, #120, ( #216 ) ) ;
#135 = ORIENTED_EDGE ( 'NONE', *, *, #6, .T. ) ;
#136 = SECURITY_CLASSIFICATION_LEVEL ( 'unclassified' ) ;
#137 = CARTESIAN_POINT ( 'NONE',  ( 0.000000000000000000, 0.000000000000000000, 3.000000000000000000 ) ) ;
#138 = AXIS2_PLACEMENT_3D ( 'NONE', #104, #260, #233 ) ;
#139 = DATE_AND_TIME ( #94, #40 ) ;
#140 = FACE_OUTER_BOUND ( 'NONE', #8, .T. ) ;
#141 = CIRCLE ( 'NONE', #79, 0.1999999999999998723 ) ;
#142 = DIRECTION ( 'NONE',  ( 1.000000000000000000, 0.000000000000000000, 0.000000000000000000 ) ) ;
#143 = DIRECTION ( 'NONE',  ( 1.000000000000000000, 0.000000000000000000, 0.000000000000000000 ) ) ;
#144 = DIRECTION ( 'NONE',  ( -0.000000000000000000, -0.000000000000000000, -1.000000000000000000 ) ) ;
#145 = AXIS2_PLACEMENT_3D ( 'NONE', #27, #195, #214 ) ;
#146 = CARTESIAN_POINT ( 'NONE',  ( 0.000000000000000000, 0.000000000000000000, 3.000000000000000000 ) ) ;
#147 = CARTESIAN_POINT ( 'NONE',  ( 0.000000000000000000, 0.000000000000000000, 3.199999999999980638 ) ) ;
#148 =( NAMED_UNIT ( * ) SI_UNIT ( $, .STERADIAN. ) SOLID_ANGLE_UNIT ( ) );
#149 =( GEOMETRIC_REPRESENTATION_CONTEXT ( 3 ) GLOBAL_UNCERTAINTY_ASSIGNED_CONTEXT ( ( #153 ) ) GLOBAL_UNIT_ASSIGNED_CONTEXT ( ( #123, #150, #148 ) ) REPRESENTATION_CONTEXT ( 'NONE', 'WORKASPACE' ) );
#150 =( NAMED_UNIT ( * ) PLANE_ANGLE_UNIT ( ) SI_UNIT ( $, .RADIAN. ) );
#151 = DATE_AND_TIME ( #51, #126 ) ;
#152 = ORIENTED_EDGE ( 'NONE', *, *, #228, .T. ) ;
#153 = UNCERTAINTY_MEASURE_WITH_UNIT (LENGTH_MEASURE( 1.000000000000000082E-05 ), #123, 'distance_accuracy_value', 'NONE');
#154 = ORIENTED_EDGE ( 'NONE', *, *, #291, .T. ) ;
#155 = ORIENTED_EDGE ( 'NONE', *, *, #266, .T. ) ;
#156 = ORIENTED_EDGE ( 'NONE', *, *, #33, .F. ) ;
#157 = DIRECTION ( 'NONE',  ( 1.000000000000000000, 0.000000000000000000, -0.000000000000000000 ) ) ;
#158 = CIRCLE ( 'NONE', #203, 1.600000000000000089 ) ;
#159 = DIRECTION ( 'NONE',  ( 0.000000000000000000, 0.000000000000000000, 1.000000000000000000 ) ) ;
#160 = CARTESIAN_POINT ( 'NONE',  ( -1.600000000000000089, 0.000000000000000000, 503.0000000000000000 ) ) ;
#161 = EDGE_CURVE ( 'NONE', #38, #211, #242, .T. ) ;
#162 = FACE_OUTER_BOUND ( 'NONE', #295, .T. ) ;
#163 = DIRECTION ( 'NONE',  ( 0.000000000000000000, 0.000000000000000000, 1.000000000000000000 ) ) ;
#164 = CARTESIAN_POINT ( 'NONE',  ( 0.000000000000000000, 0.000000000000000000, 503.0000000000000000 ) ) ;
#165 = AXIS2_PLACEMENT_3D ( 'NONE', #190, #305, #24 ) ;
#166 = LOCAL_TIME ( 12, 29, 5.000000000000000000, #271 ) ;
#167 = CARTESIAN_POINT ( 'NONE',  ( -1.600000000000000089, 0.000000000000000000, 503.0000000000000000 ) ) ;
#168 = CC_DESIGN_PERSON_AND_ORGANIZATION_ASSIGNMENT ( #290, #66, ( #252 ) ) ;
#169 = PLANE ( 'NONE',  #208 ) ;
#170 = APPLICATION_PROTOCOL_DEFINITION ( 'international standard', 'config_control_design', 1994, #97 ) ;
#171 = CYLINDRICAL_SURFACE ( 'NONE', #67, 3.000000000000000444 ) ;
#172 = PERSON_AND_ORGANIZATION ( #269, #50 ) ;
#173 = AXIS2_PLACEMENT_3D ( 'NONE', #87, #265, #286 ) ;
#174 = CC_DESIGN_APPROVAL ( #226, ( #252 ) ) ;
#175 = ORIENTED_EDGE ( 'NONE', *, *, #185, .T. ) ;
#176 = EDGE_CURVE ( 'NONE', #96, #55, #34, .T. ) ;
#177 = VECTOR ( 'NONE', #49, 1000.000000000000000 ) ;
#178 = SECURITY_CLASSIFICATION ( '', '', #136 ) ;
#179 = AXIS2_PLACEMENT_3D ( 'NONE', #14, #42, #16 ) ;
#180 = DIRECTION ( 'NONE',  ( 0.000000000000000000, 0.000000000000000000, 1.000000000000000000 ) ) ;
#181 = AXIS2_PLACEMENT_3D ( 'NONE', #239, #65, #118 ) ;
#182 = CARTESIAN_POINT ( 'NONE',  ( 0.000000000000000000, 0.000000000000000000, 0.000000000000000000 ) ) ;
#183 = ORIENTED_EDGE ( 'NONE', *, *, #161, .F. ) ;
#184 = VERTEX_POINT ( 'NONE', #263 ) ;
#185 = EDGE_CURVE ( 'NONE', #283, #278, #141, .T. ) ;
#186 = AXIS2_PLACEMENT_3D ( 'NONE', #85, #63, #143 ) ;
#187 = APPROVAL_STATUS ( 'not_yet_approved' ) ;
#188 = ORIENTED_EDGE ( 'NONE', *, *, #52, .T. ) ;
#189 = CARTESIAN_POINT ( 'NONE',  ( 3.000000000000000444, 3.673940397442060361E-16, 3.000000000000000000 ) ) ;
#190 = CARTESIAN_POINT ( 'NONE',  ( 0.000000000000000000, 0.000000000000000000, 3.000000000000000000 ) ) ;
#191 = CARTESIAN_POINT ( 'NONE',  ( 0.000000000000000000, 0.000000000000000000, 503.0000000000000000 ) ) ;
#192 = CARTESIAN_POINT ( 'NONE',  ( -1.800000000000000266, 2.204364238465236069E-16, 3.199999999999980638 ) ) ;
#193 = COORDINATED_UNIVERSAL_TIME_OFFSET ( 1, 0, .AHEAD. ) ;
#194 = VECTOR ( 'NONE', #18, 1000.000000000000000 ) ;
#195 = DIRECTION ( 'NONE',  ( 0.000000000000000000, -1.000000000000000000, 0.000000000000000000 ) ) ;
#196 = CALENDAR_DATE ( 2022, 7, 7 ) ;
#197 = ORIENTED_EDGE ( 'NONE', *, *, #185, .F. ) ;
#198 = DATE_TIME_ROLE ( 'classification_date' ) ;
#199 = CC_DESIGN_APPROVAL ( #201, ( #178 ) ) ;
#200 = ORIENTED_EDGE ( 'NONE', *, *, #176, .T. ) ;
#201 = APPROVAL ( #187, 'NEURÈENÝ' ) ;
#202 = CC_DESIGN_PERSON_AND_ORGANIZATION_ASSIGNMENT ( #172, #31, ( #252 ) ) ;
#203 = AXIS2_PLACEMENT_3D ( 'NONE', #231, #159, #256 ) ;
#204 = ORIENTED_EDGE ( 'NONE', *, *, #88, .T. ) ;
#205 = EDGE_CURVE ( 'NONE', #211, #278, #129, .T. ) ;
#206 = VERTEX_POINT ( 'NONE', #167 ) ;
#207 = CARTESIAN_POINT ( 'NONE',  ( 1.600000000000000089, 1.959434878635765230E-16, 503.0000000000000000 ) ) ;
#208 = AXIS2_PLACEMENT_3D ( 'NONE', #164, #64, #264 ) ;
#209 = CARTESIAN_POINT ( 'NONE',  ( 0.000000000000000000, 0.000000000000000000, 3.199999999999980638 ) ) ;
#210 = CC_DESIGN_SECURITY_CLASSIFICATION ( #178, ( #252 ) ) ;
#211 = VERTEX_POINT ( 'NONE', #48 ) ;
#212 = DATE_AND_TIME ( #107, #95 ) ;
#213 = FACE_OUTER_BOUND ( 'NONE', #98, .T. ) ;
#214 = DIRECTION ( 'NONE',  ( 0.000000000000000000, 0.000000000000000000, -1.000000000000000000 ) ) ;
#215 = DIRECTION ( 'NONE',  ( -1.000000000000000000, 1.224646799147354686E-16, 0.000000000000000000 ) ) ;
#216 = PRODUCT_DEFINITION ( 'NEZNÁMÝ', '', #252, #128 ) ;
#217 = CLOSED_SHELL ( 'NONE', ( #69, #272, #247, #232, #294, #25, #225, #240, #132 ) ) ;
#218 = CARTESIAN_POINT ( 'NONE',  ( -1.800000000000000266, 2.204364238465236069E-16, 2.999999999999990674 ) ) ;
#219 = FACE_OUTER_BOUND ( 'NONE', #223, .T. ) ;
#220 = CARTESIAN_POINT ( 'NONE',  ( 0.000000000000000000, 0.000000000000000000, 3.000000000000000000 ) ) ;
#221 = PERSON_AND_ORGANIZATION_ROLE ( 'creator' ) ;
#222 = AXIS2_PLACEMENT_3D ( 'NONE', #209, #131, #77 ) ;
#223 = EDGE_LOOP ( 'NONE', ( #39, #154, #93, #99 ) ) ;
#224 = PRODUCT_RELATED_PRODUCT_CATEGORY ( 'detail', '', ( #262 ) ) ;
#225 = ADVANCED_FACE ( 'NONE', ( #140 ), #84, .T. ) ;
#226 = APPROVAL ( #3, 'NEURÈENÝ' ) ;
#227 = ORIENTED_EDGE ( 'NONE', *, *, #266, .F. ) ;
#228 = EDGE_CURVE ( 'NONE', #206, #184, #17, .T. ) ;
#229 = EDGE_LOOP ( 'NONE', ( #130, #277, #188, #200 ) ) ;
#230 = ORIENTED_EDGE ( 'NONE', *, *, #205, .F. ) ;
#231 = CARTESIAN_POINT ( 'NONE',  ( 0.000000000000000000, 0.000000000000000000, 503.0000000000000000 ) ) ;
#232 = ADVANCED_FACE ( 'NONE', ( #26 ), #61, .T. ) ;
#233 = DIRECTION ( 'NONE',  ( 1.000000000000000000, 0.000000000000000000, 0.000000000000000000 ) ) ;
#234 = CARTESIAN_POINT ( 'NONE',  ( -3.000000000000000444, 0.000000000000000000, 0.000000000000000000 ) ) ;
#235 = ORIENTED_EDGE ( 'NONE', *, *, #6, .F. ) ;
#236 = PERSON_AND_ORGANIZATION ( #269, #50 ) ;
#237 = DIRECTION ( 'NONE',  ( -1.000000000000000000, 0.000000000000000000, 0.000000000000000000 ) ) ;
#238 = APPROVAL_ROLE ( '' ) ;
#239 = CARTESIAN_POINT ( 'NONE',  ( 0.000000000000000000, 0.000000000000000000, 3.000000000000000000 ) ) ;
#240 = ADVANCED_FACE ( 'NONE', ( #4 ), #169, .T. ) ;
#241 = DIRECTION ( 'NONE',  ( -0.000000000000000000, -0.000000000000000000, -1.000000000000000000 ) ) ;
#242 = CIRCLE ( 'NONE', #145, 0.2000000000000000944 ) ;
#243 = DIRECTION ( 'NONE',  ( 1.000000000000000000, 0.000000000000000000, 0.000000000000000000 ) ) ;
#244 = DIRECTION ( 'NONE',  ( 1.224646799147353207E-16, 1.000000000000000000, -0.000000000000000000 ) ) ;
#245 = AXIS2_PLACEMENT_3D ( 'NONE', #29, #121, #47 ) ;
#246 = ORIENTED_EDGE ( 'NONE', *, *, #86, .F. ) ;
#247 = ADVANCED_FACE ( 'NONE', ( #219 ), #171, .T. ) ;
#248 = CC_DESIGN_PERSON_AND_ORGANIZATION_ASSIGNMENT ( #43, #221, ( #216 ) ) ;
#249 = AXIS2_PLACEMENT_3D ( 'NONE', #304, #83, #142 ) ;
#250 = ORIENTED_EDGE ( 'NONE', *, *, #82, .T. ) ;
#251 = ORIENTED_EDGE ( 'NONE', *, *, #161, .T. ) ;
#252 = PRODUCT_DEFINITION_FORMATION_WITH_SPECIFIED_SOURCE ( 'LIBOVOLNÝ', '', #262, .NOT_KNOWN. ) ;
#253 = LINE ( 'NONE', #281, #53 ) ;
#254 = TOROIDAL_SURFACE ( 'NONE', #138, 1.800000000000000266, 0.2000000000000000111 ) ;
#255 = VERTEX_POINT ( 'NONE', #44 ) ;
#256 = DIRECTION ( 'NONE',  ( 1.000000000000000000, 0.000000000000000000, 0.000000000000000000 ) ) ;
#257 = COORDINATED_UNIVERSAL_TIME_OFFSET ( 1, 0, .AHEAD. ) ;
#258 = CARTESIAN_POINT ( 'NONE',  ( 3.000000000000000444, 3.673940397442060361E-16, 0.000000000000000000 ) ) ;
#259 = APPROVAL_DATE_TIME ( #151, #303 ) ;
#260 = DIRECTION ( 'NONE',  ( 0.000000000000000000, 0.000000000000000000, 1.000000000000000000 ) ) ;
#261 = AXIS2_PLACEMENT_3D ( 'NONE', #147, #163, #243 ) ;
#262 = PRODUCT ( '3eca', '3eca', '', ( #122 ) ) ;
#263 = CARTESIAN_POINT ( 'NONE',  ( 1.600000000000000089, 1.959434878635765230E-16, 503.0000000000000000 ) ) ;
#264 = DIRECTION ( 'NONE',  ( 1.000000000000000000, 0.000000000000000000, -0.000000000000000000 ) ) ;
#265 = DIRECTION ( 'NONE',  ( -0.000000000000000000, -0.000000000000000000, -1.000000000000000000 ) ) ;
#266 = EDGE_CURVE ( 'NONE', #278, #211, #10, .T. ) ;
#267 = LINE ( 'NONE', #189, #177 ) ;
#268 = PERSON_AND_ORGANIZATION ( #269, #50 ) ;
#269 = PERSON ( 'NEURÈENÝ', 'NEURÈENÝ', 'NEURÈENÝ', ('NEURÈENÝ'), ('NEURÈENÝ'), ('NEURÈENÝ') ) ;
#270 = AXIS2_PLACEMENT_3D ( 'NONE', #191, #144, #237 ) ;
#271 = COORDINATED_UNIVERSAL_TIME_OFFSET ( 1, 0, .AHEAD. ) ;
#272 = ADVANCED_FACE ( 'NONE', ( #285 ), #23, .T. ) ;
#273 = EDGE_LOOP ( 'NONE', ( #298, #155 ) ) ;
#274 = ORIENTED_EDGE ( 'NONE', *, *, #176, .F. ) ;
#275 = APPROVAL_PERSON_ORGANIZATION ( #268, #303, #238 ) ;
#276 = EDGE_LOOP ( 'NONE', ( #197, #246, #251, #227 ) ) ;
#277 = ORIENTED_EDGE ( 'NONE', *, *, #279, .F. ) ;
#278 = VERTEX_POINT ( 'NONE', #218 ) ;
#279 = EDGE_CURVE ( 'NONE', #100, #255, #297, .T. ) ;
#280 = CIRCLE ( 'NONE', #114, 3.000000000000000444 ) ;
#281 = CARTESIAN_POINT ( 'NONE',  ( -3.000000000000000444, 0.000000000000000000, 3.000000000000000000 ) ) ;
#282 = DIRECTION ( 'NONE',  ( 0.000000000000000000, 0.000000000000000000, 1.000000000000000000 ) ) ;
#283 = VERTEX_POINT ( 'NONE', #307 ) ;
#284 = FACE_BOUND ( 'NONE', #273, .T. ) ;
#285 = FACE_OUTER_BOUND ( 'NONE', #299, .T. ) ;
#286 = DIRECTION ( 'NONE',  ( 1.000000000000000000, 0.000000000000000000, 0.000000000000000000 ) ) ;
#287 = DIRECTION ( 'NONE',  ( -0.000000000000000000, -0.000000000000000000, -1.000000000000000000 ) ) ;
#288 = APPLICATION_PROTOCOL_DEFINITION ( 'international standard', 'config_control_design', 1994, #117 ) ;
#289 = DIRECTION ( 'NONE',  ( -1.000000000000000000, 0.000000000000000000, 0.000000000000000000 ) ) ;
#290 = PERSON_AND_ORGANIZATION ( #269, #50 ) ;
#291 = EDGE_CURVE ( 'NONE', #255, #55, #267, .T. ) ;
#292 = PERSON_AND_ORGANIZATION ( #269, #50 ) ;
#293 = CIRCLE ( 'NONE', #222, 1.600000000000000089 ) ;
#294 = ADVANCED_FACE ( 'NONE', ( #284, #113 ), #306, .T. ) ;
#295 = EDGE_LOOP ( 'NONE', ( #235, #175, #230, #183 ) ) ;
#296 = DIRECTION ( 'NONE',  ( -0.000000000000000000, -0.000000000000000000, -1.000000000000000000 ) ) ;
#297 = CIRCLE ( 'NONE', #165, 3.000000000000000444 ) ;
#298 = ORIENTED_EDGE ( 'NONE', *, *, #205, .T. ) ;
#299 = EDGE_LOOP ( 'NONE', ( #127, #21, #78, #156 ) ) ;
#300 = APPROVAL_DATE_TIME ( #212, #201 ) ;
#301 = CC_DESIGN_PERSON_AND_ORGANIZATION_ASSIGNMENT ( #236, #124, ( #178 ) ) ;
#302 = EDGE_LOOP ( 'NONE', ( #54, #250 ) ) ;
#303 = APPROVAL ( #30, 'NEURÈENÝ' ) ;
#304 = CARTESIAN_POINT ( 'NONE',  ( 0.000000000000000000, 0.000000000000000000, 0.000000000000000000 ) ) ;
#305 = DIRECTION ( 'NONE',  ( 0.000000000000000000, 0.000000000000000000, 1.000000000000000000 ) ) ;
#306 = PLANE ( 'NONE',  #62 ) ;
#307 = CARTESIAN_POINT ( 'NONE',  ( -1.600000000000000089, 0.000000000000000000, 3.199999999999980638 ) ) ;
ENDSEC;
END-ISO-10303-21;
