ISO-10303-21;
HEADER;
FILE_DESCRIPTION (( 'STEP AP203' ),
    '1' );
FILE_NAME ('6907.STEP',
    '2022-07-07T09:55:36',
    ( '' ),
    ( '' ),
    'SwSTEP 2.0',
    'SolidWorks 2019',
    '' );
FILE_SCHEMA (( 'CONFIG_CONTROL_DESIGN' ));
ENDSEC;

DATA;
#1 = CARTESIAN_POINT ( 'NONE',  ( -4.500000000000000888, 0.000000000000000000, 5.199999999999982414 ) ) ;
#2 = DATE_AND_TIME ( #123, #83 ) ;
#3 = CIRCLE ( 'NONE', #44, 4.700000000000000178 ) ;
#4 = DIRECTION ( 'NONE',  ( -0.000000000000000000, -0.000000000000000000, -1.000000000000000000 ) ) ;
#5 = SECURITY_CLASSIFICATION ( '', '', #144 ) ;
#6 = ADVANCED_FACE ( 'NONE', ( #245 ), #295, .F. ) ;
#7 = AXIS2_PLACEMENT_3D ( 'NONE', #242, #283, #287 ) ;
#8 = VERTEX_POINT ( 'NONE', #224 ) ;
#9 = DIRECTION ( 'NONE',  ( 1.000000000000000000, 0.000000000000000000, 0.000000000000000000 ) ) ;
#10 = EDGE_CURVE ( 'NONE', #107, #88, #105, .T. ) ;
#11 = ORIENTED_EDGE ( 'NONE', *, *, #104, .T. ) ;
#12 = CIRCLE ( 'NONE', #265, 0.1999999999999996503 ) ;
#13 = ORIENTED_EDGE ( 'NONE', *, *, #187, .T. ) ;
#14 = EDGE_CURVE ( 'NONE', #39, #192, #92, .T. ) ;
#15 = PERSON_AND_ORGANIZATION ( #74, #215 ) ;
#16 = COORDINATED_UNIVERSAL_TIME_OFFSET ( 1, 0, .AHEAD. ) ;
#17 = VECTOR ( 'NONE', #155, 1000.000000000000000 ) ;
#18 = APPROVAL_ROLE ( '' ) ;
#19 = AXIS2_PLACEMENT_3D ( 'NONE', #159, #211, #212 ) ;
#20 = ORIENTED_EDGE ( 'NONE', *, *, #14, .T. ) ;
#21 = DATE_AND_TIME ( #160, #231 ) ;
#22 = PRODUCT ( '6907', '6907', '', ( #93 ) ) ;
#23 = DIRECTION ( 'NONE',  ( -1.000000000000000000, 1.224646799147353454E-16, 0.000000000000000000 ) ) ;
#24 = EDGE_CURVE ( 'NONE', #227, #184, #174, .T. ) ;
#25 = CARTESIAN_POINT ( 'NONE',  ( 4.500000000000000888, 5.510910596163089556E-16, 1004.999999999999886 ) ) ;
#26 = CARTESIAN_POINT ( 'NONE',  ( -4.700000000000000178, 5.755839955992559655E-16, 4.999999999999991118 ) ) ;
#27 = EDGE_LOOP ( 'NONE', ( #115, #11 ) ) ;
#28 = AXIS2_PLACEMENT_3D ( 'NONE', #244, #30, #213 ) ;
#29 = CC_DESIGN_APPROVAL ( #55, ( #112 ) ) ;
#30 = DIRECTION ( 'NONE',  ( 0.000000000000000000, 0.000000000000000000, 1.000000000000000000 ) ) ;
#31 = FACE_OUTER_BOUND ( 'NONE', #67, .T. ) ;
#32 = CARTESIAN_POINT ( 'NONE',  ( 0.000000000000000000, 0.000000000000000000, 5.000000000000000000 ) ) ;
#33 = APPROVAL_ROLE ( '' ) ;
#34 = DIRECTION ( 'NONE',  ( 0.000000000000000000, 0.000000000000000000, 1.000000000000000000 ) ) ;
#35 = APPROVAL_PERSON_ORGANIZATION ( #278, #55, #18 ) ;
#36 = CARTESIAN_POINT ( 'NONE',  ( 0.000000000000000000, 0.000000000000000000, 1004.999999999999886 ) ) ;
#37 = DIRECTION ( 'NONE',  ( -0.000000000000000000, -0.000000000000000000, -1.000000000000000000 ) ) ;
#38 = AXIS2_PLACEMENT_3D ( 'NONE', #56, #193, #119 ) ;
#39 = VERTEX_POINT ( 'NONE', #154 ) ;
#40 = DIRECTION ( 'NONE',  ( 0.000000000000000000, 0.000000000000000000, 1.000000000000000000 ) ) ;
#41 = APPLICATION_CONTEXT ( 'configuration controlled 3d designs of mechanical parts and assemblies' ) ;
#42 = EDGE_CURVE ( 'NONE', #290, #107, #197, .T. ) ;
#43 = APPROVAL_STATUS ( 'not_yet_approved' ) ;
#44 = AXIS2_PLACEMENT_3D ( 'NONE', #32, #170, #51 ) ;
#45 = EDGE_CURVE ( 'NONE', #8, #39, #122, .T. ) ;
#46 = CYLINDRICAL_SURFACE ( 'NONE', #210, 4.500000000000000888 ) ;
#47 = ORIENTED_EDGE ( 'NONE', *, *, #65, .F. ) ;
#48 = APPROVAL_STATUS ( 'not_yet_approved' ) ;
#49 = CARTESIAN_POINT ( 'NONE',  ( -4.700000000000000178, 5.755839955992559655E-16, 5.199999999999982414 ) ) ;
#50 = DIRECTION ( 'NONE',  ( 1.000000000000000000, 0.000000000000000000, -0.000000000000000000 ) ) ;
#51 = DIRECTION ( 'NONE',  ( 1.000000000000000000, 0.000000000000000000, 0.000000000000000000 ) ) ;
#52 = PERSON_AND_ORGANIZATION ( #74, #215 ) ;
#53 = DIRECTION ( 'NONE',  ( -1.000000000000000000, 0.000000000000000000, 0.000000000000000000 ) ) ;
#54 = DIRECTION ( 'NONE',  ( -0.000000000000000000, -0.000000000000000000, -1.000000000000000000 ) ) ;
#55 = APPROVAL ( #43, 'NEURÈENÝ' ) ;
#56 = CARTESIAN_POINT ( 'NONE',  ( 4.700000000000000178, 0.000000000000000000, 5.199999999999982414 ) ) ;
#57 = EDGE_LOOP ( 'NONE', ( #250, #13, #306, #259 ) ) ;
#58 = CC_DESIGN_APPROVAL ( #84, ( #111 ) ) ;
#59 = AXIS2_PLACEMENT_3D ( 'NONE', #214, #71, #128 ) ;
#60 =( NAMED_UNIT ( * ) PLANE_ANGLE_UNIT ( ) SI_UNIT ( $, .RADIAN. ) );
#61 = CARTESIAN_POINT ( 'NONE',  ( 0.000000000000000000, 0.000000000000000000, 5.000000000000000000 ) ) ;
#62 = EDGE_LOOP ( 'NONE', ( #204, #189, #176, #291 ) ) ;
#63 = PERSON_AND_ORGANIZATION_ROLE ( 'creator' ) ;
#64 = CIRCLE ( 'NONE', #59, 7.000000000000000000 ) ;
#65 = EDGE_CURVE ( 'NONE', #139, #184, #157, .T. ) ;
#66 = LINE ( 'NONE', #220, #161 ) ;
#67 = EDGE_LOOP ( 'NONE', ( #118, #135, #255, #249 ) ) ;
#68 = PERSON_AND_ORGANIZATION_ROLE ( 'creator' ) ;
#69 = CARTESIAN_POINT ( 'NONE',  ( -7.000000000000000000, 0.000000000000000000, 0.000000000000000000 ) ) ;
#70 = VERTEX_POINT ( 'NONE', #240 ) ;
#71 = DIRECTION ( 'NONE',  ( 0.000000000000000000, 0.000000000000000000, 1.000000000000000000 ) ) ;
#72 = PERSON_AND_ORGANIZATION ( #74, #215 ) ;
#73 = AXIS2_PLACEMENT_3D ( 'NONE', #91, #124, #126 ) ;
#74 = PERSON ( 'NEURÈENÝ', 'NEURÈENÝ', 'NEURÈENÝ', ('NEURÈENÝ'), ('NEURÈENÝ'), ('NEURÈENÝ') ) ;
#75 = LINE ( 'NONE', #145, #207 ) ;
#76 = CYLINDRICAL_SURFACE ( 'NONE', #87, 4.500000000000000888 ) ;
#77 = EDGE_CURVE ( 'NONE', #107, #290, #273, .T. ) ;
#78 = ORIENTED_EDGE ( 'NONE', *, *, #131, .T. ) ;
#79 = ORIENTED_EDGE ( 'NONE', *, *, #98, .F. ) ;
#80 = EDGE_LOOP ( 'NONE', ( #133, #47 ) ) ;
#81 = ORIENTED_EDGE ( 'NONE', *, *, #275, .F. ) ;
#82 = EDGE_CURVE ( 'NONE', #184, #139, #181, .T. ) ;
#83 = LOCAL_TIME ( 11, 55, 36.00000000000000000, #150 ) ;
#84 = APPROVAL ( #158, 'NEURÈENÝ' ) ;
#85 = DIRECTION ( 'NONE',  ( 1.000000000000000000, 0.000000000000000000, 0.000000000000000000 ) ) ;
#86 = ADVANCED_BREP_SHAPE_REPRESENTATION ( '6907', ( #263, #94 ), #297 ) ;
#87 = AXIS2_PLACEMENT_3D ( 'NONE', #266, #285, #53 ) ;
#88 = VERTEX_POINT ( 'NONE', #1 ) ;
#89 = EDGE_CURVE ( 'NONE', #70, #139, #75, .T. ) ;
#90 = CARTESIAN_POINT ( 'NONE',  ( 0.000000000000000000, 0.000000000000000000, 5.199999999999982414 ) ) ;
#91 = CARTESIAN_POINT ( 'NONE',  ( 0.000000000000000000, 0.000000000000000000, 0.000000000000000000 ) ) ;
#92 = CIRCLE ( 'NONE', #169, 4.700000000000000178 ) ;
#93 = MECHANICAL_CONTEXT ( 'NONE', #288, 'mechanical' ) ;
#94 = AXIS2_PLACEMENT_3D ( 'NONE', #183, #40, #238 ) ;
#95 = FACE_OUTER_BOUND ( 'NONE', #236, .T. ) ;
#96 = ORIENTED_EDGE ( 'NONE', *, *, #200, .F. ) ;
#97 = CALENDAR_DATE ( 2022, 7, 7 ) ;
#98 = EDGE_CURVE ( 'NONE', #192, #39, #3, .T. ) ;
#99 = DIRECTION ( 'NONE',  ( 0.000000000000000000, 0.000000000000000000, 1.000000000000000000 ) ) ;
#100 = DIRECTION ( 'NONE',  ( -0.000000000000000000, -0.000000000000000000, -1.000000000000000000 ) ) ;
#101 = PERSON_AND_ORGANIZATION ( #74, #215 ) ;
#102 = CARTESIAN_POINT ( 'NONE',  ( 0.000000000000000000, 0.000000000000000000, 1004.999999999999886 ) ) ;
#103 = AXIS2_PLACEMENT_3D ( 'NONE', #257, #276, #256 ) ;
#104 = EDGE_CURVE ( 'NONE', #70, #227, #64, .T. ) ;
#105 = LINE ( 'NONE', #132, #17 ) ;
#106 = ORIENTED_EDGE ( 'NONE', *, *, #10, .F. ) ;
#107 = VERTEX_POINT ( 'NONE', #173 ) ;
#108 = DESIGN_CONTEXT ( 'detailed design', #41, 'design' ) ;
#109 = ORIENTED_EDGE ( 'NONE', *, *, #187, .F. ) ;
#110 = CC_DESIGN_APPROVAL ( #281, ( #5 ) ) ;
#111 = PRODUCT_DEFINITION_FORMATION_WITH_SPECIFIED_SOURCE ( 'LIBOVOLNÝ', '', #22, .NOT_KNOWN. ) ;
#112 = PRODUCT_DEFINITION ( 'NEZNÁMÝ', '', #111, #108 ) ;
#113 = COORDINATED_UNIVERSAL_TIME_OFFSET ( 1, 0, .AHEAD. ) ;
#114 = DIRECTION ( 'NONE',  ( 0.000000000000000000, 0.000000000000000000, 1.000000000000000000 ) ) ;
#115 = ORIENTED_EDGE ( 'NONE', *, *, #275, .T. ) ;
#116 = COORDINATED_UNIVERSAL_TIME_OFFSET ( 1, 0, .AHEAD. ) ;
#117 = CIRCLE ( 'NONE', #286, 4.500000000000000888 ) ;
#118 = ORIENTED_EDGE ( 'NONE', *, *, #131, .F. ) ;
#119 = DIRECTION ( 'NONE',  ( 0.000000000000000000, 0.000000000000000000, -1.000000000000000000 ) ) ;
#120 = PRODUCT_RELATED_PRODUCT_CATEGORY ( 'detail', '', ( #22 ) ) ;
#121 = CYLINDRICAL_SURFACE ( 'NONE', #146, 7.000000000000000000 ) ;
#122 = CIRCLE ( 'NONE', #38, 0.1999999999999996503 ) ;
#123 = CALENDAR_DATE ( 2022, 7, 7 ) ;
#124 = DIRECTION ( 'NONE',  ( 0.000000000000000000, 0.000000000000000000, 1.000000000000000000 ) ) ;
#125 = APPROVAL_DATE_TIME ( #2, #281 ) ;
#126 = DIRECTION ( 'NONE',  ( 1.000000000000000000, 0.000000000000000000, 0.000000000000000000 ) ) ;
#127 = CALENDAR_DATE ( 2022, 7, 7 ) ;
#128 = DIRECTION ( 'NONE',  ( 1.000000000000000000, 0.000000000000000000, 0.000000000000000000 ) ) ;
#129 = PERSON_AND_ORGANIZATION_ROLE ( 'design_supplier' ) ;
#130 = DIRECTION ( 'NONE',  ( 1.000000000000000000, 0.000000000000000000, 0.000000000000000000 ) ) ;
#131 = EDGE_CURVE ( 'NONE', #290, #8, #66, .T. ) ;
#132 = CARTESIAN_POINT ( 'NONE',  ( -4.500000000000000888, 0.000000000000000000, 1004.999999999999886 ) ) ;
#133 = ORIENTED_EDGE ( 'NONE', *, *, #82, .F. ) ;
#134 = CC_DESIGN_PERSON_AND_ORGANIZATION_ASSIGNMENT ( #101, #68, ( #111 ) ) ;
#135 = ORIENTED_EDGE ( 'NONE', *, *, #77, .F. ) ;
#136 = CIRCLE ( 'NONE', #298, 4.500000000000000888 ) ;
#137 = APPLICATION_PROTOCOL_DEFINITION ( 'international standard', 'config_control_design', 1994, #41 ) ;
#138 = DIRECTION ( 'NONE',  ( -1.000000000000000000, 0.000000000000000000, 0.000000000000000000 ) ) ;
#139 = VERTEX_POINT ( 'NONE', #260 ) ;
#140 = PERSON_AND_ORGANIZATION_ROLE ( 'design_owner' ) ;
#141 = AXIS2_PLACEMENT_3D ( 'NONE', #216, #99, #218 ) ;
#142 = CARTESIAN_POINT ( 'NONE',  ( 0.000000000000000000, 0.000000000000000000, 1004.999999999999886 ) ) ;
#143 = ADVANCED_FACE ( 'NONE', ( #307 ), #121, .T. ) ;
#144 = SECURITY_CLASSIFICATION_LEVEL ( 'unclassified' ) ;
#145 = CARTESIAN_POINT ( 'NONE',  ( 7.000000000000000000, 8.572527594031473190E-16, 5.000000000000000000 ) ) ;
#146 = AXIS2_PLACEMENT_3D ( 'NONE', #268, #100, #284 ) ;
#147 = FACE_BOUND ( 'NONE', #271, .T. ) ;
#148 = DATE_AND_TIME ( #97, #162 ) ;
#149 = DIRECTION ( 'NONE',  ( -0.000000000000000000, -0.000000000000000000, -1.000000000000000000 ) ) ;
#150 = COORDINATED_UNIVERSAL_TIME_OFFSET ( 1, 0, .AHEAD. ) ;
#151 = DIRECTION ( 'NONE',  ( 1.224646799147353207E-16, 1.000000000000000000, -0.000000000000000000 ) ) ;
#152 = AXIS2_PLACEMENT_3D ( 'NONE', #272, #34, #130 ) ;
#153 = APPROVAL_PERSON_ORGANIZATION ( #72, #281, #33 ) ;
#154 = CARTESIAN_POINT ( 'NONE',  ( 4.700000000000000178, 0.000000000000000000, 4.999999999999991118 ) ) ;
#155 = DIRECTION ( 'NONE',  ( -0.000000000000000000, -0.000000000000000000, -1.000000000000000000 ) ) ;
#156 = EDGE_LOOP ( 'NONE', ( #178, #78, #203, #106 ) ) ;
#157 = CIRCLE ( 'NONE', #28, 7.000000000000000000 ) ;
#158 = APPROVAL_STATUS ( 'not_yet_approved' ) ;
#159 = CARTESIAN_POINT ( 'NONE',  ( 0.000000000000000000, 0.000000000000000000, 0.000000000000000000 ) ) ;
#160 = CALENDAR_DATE ( 2022, 7, 7 ) ;
#161 = VECTOR ( 'NONE', #4, 1000.000000000000000 ) ;
#162 = LOCAL_TIME ( 11, 55, 36.00000000000000000, #219 ) ;
#163 = FACE_OUTER_BOUND ( 'NONE', #80, .T. ) ;
#164 = CC_DESIGN_PERSON_AND_ORGANIZATION_ASSIGNMENT ( #237, #140, ( #22 ) ) ;
#165 = DIRECTION ( 'NONE',  ( 1.000000000000000000, 0.000000000000000000, 0.000000000000000000 ) ) ;
#166 = DIRECTION ( 'NONE',  ( -1.000000000000000000, 0.000000000000000000, 0.000000000000000000 ) ) ;
#167 = ORIENTED_EDGE ( 'NONE', *, *, #77, .T. ) ;
#168 = PLANE ( 'NONE',  #277 ) ;
#169 = AXIS2_PLACEMENT_3D ( 'NONE', #199, #37, #289 ) ;
#170 = DIRECTION ( 'NONE',  ( -0.000000000000000000, -0.000000000000000000, -1.000000000000000000 ) ) ;
#171 = DATE_AND_TIME ( #127, #264 ) ;
#172 = ADVANCED_FACE ( 'NONE', ( #302 ), #168, .T. ) ;
#173 = CARTESIAN_POINT ( 'NONE',  ( -4.500000000000000888, 0.000000000000000000, 1004.999999999999886 ) ) ;
#174 = LINE ( 'NONE', #269, #253 ) ;
#175 = ORIENTED_EDGE ( 'NONE', *, *, #89, .F. ) ;
#176 = ORIENTED_EDGE ( 'NONE', *, *, #65, .T. ) ;
#177 = CC_DESIGN_PERSON_AND_ORGANIZATION_ASSIGNMENT ( #52, #129, ( #111 ) ) ;
#178 = ORIENTED_EDGE ( 'NONE', *, *, #42, .F. ) ;
#179 = ADVANCED_FACE ( 'NONE', ( #147, #196 ), #198, .T. ) ;
#180 = CC_DESIGN_PERSON_AND_ORGANIZATION_ASSIGNMENT ( #217, #243, ( #5 ) ) ;
#181 = CIRCLE ( 'NONE', #73, 7.000000000000000000 ) ;
#182 = ADVANCED_FACE ( 'NONE', ( #31 ), #76, .T. ) ;
#183 = CARTESIAN_POINT ( 'NONE',  ( 0.000000000000000000, 0.000000000000000000, 0.000000000000000000 ) ) ;
#184 = VERTEX_POINT ( 'NONE', #69 ) ;
#185 = DIRECTION ( 'NONE',  ( -0.000000000000000000, -0.000000000000000000, -1.000000000000000000 ) ) ;
#186 = PLANE ( 'NONE',  #19 ) ;
#187 = EDGE_CURVE ( 'NONE', #88, #192, #12, .T. ) ;
#188 = CARTESIAN_POINT ( 'NONE',  ( 0.000000000000000000, 0.000000000000000000, 5.199999999999982414 ) ) ;
#189 = ORIENTED_EDGE ( 'NONE', *, *, #89, .T. ) ;
#190 = FACE_OUTER_BOUND ( 'NONE', #57, .T. ) ;
#191 = CYLINDRICAL_SURFACE ( 'NONE', #251, 7.000000000000000000 ) ;
#192 = VERTEX_POINT ( 'NONE', #26 ) ;
#193 = DIRECTION ( 'NONE',  ( 0.000000000000000000, -1.000000000000000000, 0.000000000000000000 ) ) ;
#194 = DATE_TIME_ROLE ( 'classification_date' ) ;
#195 = PRODUCT_DEFINITION_SHAPE ( 'NONE', 'NONE',  #112 ) ;
#196 = FACE_OUTER_BOUND ( 'NONE', #27, .T. ) ;
#197 = CIRCLE ( 'NONE', #221, 4.500000000000000888 ) ;
#198 = PLANE ( 'NONE',  #7 ) ;
#199 = CARTESIAN_POINT ( 'NONE',  ( 0.000000000000000000, 0.000000000000000000, 5.000000000000000000 ) ) ;
#200 = EDGE_CURVE ( 'NONE', #8, #88, #136, .T. ) ;
#201 = ORIENTED_EDGE ( 'NONE', *, *, #82, .T. ) ;
#202 = CC_DESIGN_DATE_AND_TIME_ASSIGNMENT ( #148, #194, ( #5 ) ) ;
#203 = ORIENTED_EDGE ( 'NONE', *, *, #200, .T. ) ;
#204 = ORIENTED_EDGE ( 'NONE', *, *, #104, .F. ) ;
#205 = DATE_TIME_ROLE ( 'creation_date' ) ;
#206 = DIRECTION ( 'NONE',  ( 0.000000000000000000, 0.000000000000000000, 1.000000000000000000 ) ) ;
#207 = VECTOR ( 'NONE', #149, 1000.000000000000000 ) ;
#208 = AXIS2_PLACEMENT_3D ( 'NONE', #235, #206, #296 ) ;
#209 = ORIENTED_EDGE ( 'NONE', *, *, #24, .T. ) ;
#210 = AXIS2_PLACEMENT_3D ( 'NONE', #142, #239, #166 ) ;
#211 = DIRECTION ( 'NONE',  ( 0.000000000000000000, 0.000000000000000000, 1.000000000000000000 ) ) ;
#212 = DIRECTION ( 'NONE',  ( 1.000000000000000000, 0.000000000000000000, -0.000000000000000000 ) ) ;
#213 = DIRECTION ( 'NONE',  ( 1.000000000000000000, 0.000000000000000000, 0.000000000000000000 ) ) ;
#214 = CARTESIAN_POINT ( 'NONE',  ( 0.000000000000000000, 0.000000000000000000, 5.000000000000000000 ) ) ;
#215 = ORGANIZATION ( 'NEURÈENÝ', 'NEURÈENÝ', '' ) ;
#216 = CARTESIAN_POINT ( 'NONE',  ( 0.000000000000000000, 0.000000000000000000, 1004.999999999999886 ) ) ;
#217 = PERSON_AND_ORGANIZATION ( #74, #215 ) ;
#218 = DIRECTION ( 'NONE',  ( 1.000000000000000000, 0.000000000000000000, 0.000000000000000000 ) ) ;
#219 = COORDINATED_UNIVERSAL_TIME_OFFSET ( 1, 0, .AHEAD. ) ;
#220 = CARTESIAN_POINT ( 'NONE',  ( 4.500000000000000888, 5.510910596163089556E-16, 1004.999999999999886 ) ) ;
#221 = AXIS2_PLACEMENT_3D ( 'NONE', #36, #226, #9 ) ;
#222 = SHAPE_DEFINITION_REPRESENTATION ( #195, #86 ) ;
#223 = CIRCLE ( 'NONE', #103, 7.000000000000000000 ) ;
#224 = CARTESIAN_POINT ( 'NONE',  ( 4.500000000000000888, 5.510910596163089556E-16, 5.199999999999982414 ) ) ;
#225 = ADVANCED_FACE ( 'NONE', ( #258 ), #46, .T. ) ;
#226 = DIRECTION ( 'NONE',  ( 0.000000000000000000, 0.000000000000000000, 1.000000000000000000 ) ) ;
#227 = VERTEX_POINT ( 'NONE', #305 ) ;
#228 = UNCERTAINTY_MEASURE_WITH_UNIT (LENGTH_MEASURE( 1.000000000000000082E-05 ), #280, 'distance_accuracy_value', 'NONE');
#229 = ORIENTED_EDGE ( 'NONE', *, *, #42, .T. ) ;
#230 = ADVANCED_FACE ( 'NONE', ( #95 ), #191, .T. ) ;
#231 = LOCAL_TIME ( 11, 55, 36.00000000000000000, #113 ) ;
#232 = APPLICATION_PROTOCOL_DEFINITION ( 'international standard', 'config_control_design', 1994, #288 ) ;
#233 = APPROVAL_DATE_TIME ( #300, #55 ) ;
#234 = EDGE_LOOP ( 'NONE', ( #167, #229 ) ) ;
#235 = CARTESIAN_POINT ( 'NONE',  ( 0.000000000000000000, 0.000000000000000000, 5.199999999999982414 ) ) ;
#236 = EDGE_LOOP ( 'NONE', ( #175, #81, #209, #201 ) ) ;
#237 = PERSON_AND_ORGANIZATION ( #74, #215 ) ;
#238 = DIRECTION ( 'NONE',  ( 1.000000000000000000, 0.000000000000000000, 0.000000000000000000 ) ) ;
#239 = DIRECTION ( 'NONE',  ( -0.000000000000000000, -0.000000000000000000, -1.000000000000000000 ) ) ;
#240 = CARTESIAN_POINT ( 'NONE',  ( 7.000000000000000000, 8.572527594031473190E-16, 5.000000000000000000 ) ) ;
#241 = EDGE_LOOP ( 'NONE', ( #109, #96, #248, #79 ) ) ;
#242 = CARTESIAN_POINT ( 'NONE',  ( 0.000000000000000000, 0.000000000000000000, 5.000000000000000000 ) ) ;
#243 = PERSON_AND_ORGANIZATION_ROLE ( 'classification_officer' ) ;
#244 = CARTESIAN_POINT ( 'NONE',  ( 0.000000000000000000, 0.000000000000000000, 0.000000000000000000 ) ) ;
#245 = FACE_OUTER_BOUND ( 'NONE', #241, .T. ) ;
#246 = EDGE_CURVE ( 'NONE', #88, #8, #117, .T. ) ;
#247 = APPROVAL_PERSON_ORGANIZATION ( #294, #84, #254 ) ;
#248 = ORIENTED_EDGE ( 'NONE', *, *, #45, .T. ) ;
#249 = ORIENTED_EDGE ( 'NONE', *, *, #246, .T. ) ;
#250 = ORIENTED_EDGE ( 'NONE', *, *, #246, .F. ) ;
#251 = AXIS2_PLACEMENT_3D ( 'NONE', #61, #185, #138 ) ;
#252 = CC_DESIGN_DATE_AND_TIME_ASSIGNMENT ( #21, #205, ( #112 ) ) ;
#253 = VECTOR ( 'NONE', #54, 1000.000000000000000 ) ;
#254 = APPROVAL_ROLE ( '' ) ;
#255 = ORIENTED_EDGE ( 'NONE', *, *, #10, .T. ) ;
#256 = DIRECTION ( 'NONE',  ( 1.000000000000000000, 0.000000000000000000, 0.000000000000000000 ) ) ;
#257 = CARTESIAN_POINT ( 'NONE',  ( 0.000000000000000000, 0.000000000000000000, 5.000000000000000000 ) ) ;
#258 = FACE_OUTER_BOUND ( 'NONE', #156, .T. ) ;
#259 = ORIENTED_EDGE ( 'NONE', *, *, #45, .F. ) ;
#260 = CARTESIAN_POINT ( 'NONE',  ( 7.000000000000000000, 8.572527594031473190E-16, 0.000000000000000000 ) ) ;
#261 = ADVANCED_FACE ( 'NONE', ( #163 ), #186, .F. ) ;
#262 = DIRECTION ( 'NONE',  ( 0.000000000000000000, 0.000000000000000000, 1.000000000000000000 ) ) ;
#263 = MANIFOLD_SOLID_BREP ( 'Zaoblit1', #270 ) ;
#264 = LOCAL_TIME ( 11, 55, 36.00000000000000000, #16 ) ;
#265 = AXIS2_PLACEMENT_3D ( 'NONE', #49, #151, #23 ) ;
#266 = CARTESIAN_POINT ( 'NONE',  ( 0.000000000000000000, 0.000000000000000000, 1004.999999999999886 ) ) ;
#267 = APPROVAL_DATE_TIME ( #171, #84 ) ;
#268 = CARTESIAN_POINT ( 'NONE',  ( 0.000000000000000000, 0.000000000000000000, 5.000000000000000000 ) ) ;
#269 = CARTESIAN_POINT ( 'NONE',  ( -7.000000000000000000, 0.000000000000000000, 5.000000000000000000 ) ) ;
#270 = CLOSED_SHELL ( 'NONE', ( #292, #225, #143, #230, #179, #261, #182, #172, #6 ) ) ;
#271 = EDGE_LOOP ( 'NONE', ( #20, #299 ) ) ;
#272 = CARTESIAN_POINT ( 'NONE',  ( 0.000000000000000000, 0.000000000000000000, 5.199999999999982414 ) ) ;
#273 = CIRCLE ( 'NONE', #141, 4.500000000000000888 ) ;
#274 = TOROIDAL_SURFACE ( 'NONE', #208, 4.700000000000000178, 0.2000000000000000111 ) ;
#275 = EDGE_CURVE ( 'NONE', #227, #70, #223, .T. ) ;
#276 = DIRECTION ( 'NONE',  ( 0.000000000000000000, 0.000000000000000000, 1.000000000000000000 ) ) ;
#277 = AXIS2_PLACEMENT_3D ( 'NONE', #102, #262, #50 ) ;
#278 = PERSON_AND_ORGANIZATION ( #74, #215 ) ;
#279 = CALENDAR_DATE ( 2022, 7, 7 ) ;
#280 =( LENGTH_UNIT ( ) NAMED_UNIT ( * ) SI_UNIT ( .MILLI., .METRE. ) );
#281 = APPROVAL ( #48, 'NEURÈENÝ' ) ;
#282 = DIRECTION ( 'NONE',  ( 0.000000000000000000, 0.000000000000000000, 1.000000000000000000 ) ) ;
#283 = DIRECTION ( 'NONE',  ( 0.000000000000000000, 0.000000000000000000, 1.000000000000000000 ) ) ;
#284 = DIRECTION ( 'NONE',  ( -1.000000000000000000, 0.000000000000000000, 0.000000000000000000 ) ) ;
#285 = DIRECTION ( 'NONE',  ( -0.000000000000000000, -0.000000000000000000, -1.000000000000000000 ) ) ;
#286 = AXIS2_PLACEMENT_3D ( 'NONE', #90, #114, #85 ) ;
#287 = DIRECTION ( 'NONE',  ( 1.000000000000000000, 0.000000000000000000, -0.000000000000000000 ) ) ;
#288 = APPLICATION_CONTEXT ( 'configuration controlled 3d designs of mechanical parts and assemblies' ) ;
#289 = DIRECTION ( 'NONE',  ( 1.000000000000000000, 0.000000000000000000, 0.000000000000000000 ) ) ;
#290 = VERTEX_POINT ( 'NONE', #25 ) ;
#291 = ORIENTED_EDGE ( 'NONE', *, *, #24, .F. ) ;
#292 = ADVANCED_FACE ( 'NONE', ( #190 ), #274, .F. ) ;
#293 = CC_DESIGN_SECURITY_CLASSIFICATION ( #5, ( #111 ) ) ;
#294 = PERSON_AND_ORGANIZATION ( #74, #215 ) ;
#295 = TOROIDAL_SURFACE ( 'NONE', #152, 4.700000000000000178, 0.2000000000000000111 ) ;
#296 = DIRECTION ( 'NONE',  ( 1.000000000000000000, 0.000000000000000000, 0.000000000000000000 ) ) ;
#297 =( GEOMETRIC_REPRESENTATION_CONTEXT ( 3 ) GLOBAL_UNCERTAINTY_ASSIGNED_CONTEXT ( ( #228 ) ) GLOBAL_UNIT_ASSIGNED_CONTEXT ( ( #280, #60, #301 ) ) REPRESENTATION_CONTEXT ( 'NONE', 'WORKASPACE' ) );
#298 = AXIS2_PLACEMENT_3D ( 'NONE', #188, #282, #165 ) ;
#299 = ORIENTED_EDGE ( 'NONE', *, *, #98, .T. ) ;
#300 = DATE_AND_TIME ( #279, #304 ) ;
#301 =( NAMED_UNIT ( * ) SI_UNIT ( $, .STERADIAN. ) SOLID_ANGLE_UNIT ( ) );
#302 = FACE_OUTER_BOUND ( 'NONE', #234, .T. ) ;
#303 = CC_DESIGN_PERSON_AND_ORGANIZATION_ASSIGNMENT ( #15, #63, ( #112 ) ) ;
#304 = LOCAL_TIME ( 11, 55, 36.00000000000000000, #116 ) ;
#305 = CARTESIAN_POINT ( 'NONE',  ( -7.000000000000000000, 0.000000000000000000, 5.000000000000000000 ) ) ;
#306 = ORIENTED_EDGE ( 'NONE', *, *, #14, .F. ) ;
#307 = FACE_OUTER_BOUND ( 'NONE', #62, .T. ) ;
ENDSEC;
END-ISO-10303-21;
