ISO-10303-21;
HEADER;
FILE_DESCRIPTION (( 'STEP AP203' ),
    '1' );
FILE_NAME ('411a.STEP',
    '2022-07-27T18:02:51',
    ( '' ),
    ( '' ),
    'SwSTEP 2.0',
    'SolidWorks 2019',
    '' );
FILE_SCHEMA (( 'CONFIG_CONTROL_DESIGN' ));
ENDSEC;

DATA;
#1 = ORIENTED_EDGE ( 'NONE', *, *, #223, .F. ) ;
#2 = DIRECTION ( 'NONE',  ( -0.000000000000000000, -0.000000000000000000, -1.000000000000000000 ) ) ;
#3 = ADVANCED_FACE ( 'NONE', ( #190, #24 ), #165, .T. ) ;
#4 = ORIENTED_EDGE ( 'NONE', *, *, #172, .T. ) ;
#5 = CARTESIAN_POINT ( 'NONE',  ( -5.000000000000000888, 0.000000000000000000, 100.0000000000000000 ) ) ;
#6 = PRODUCT_DEFINITION ( 'NEZNÁMÝ', '', #52, #32 ) ;
#7 = CARTESIAN_POINT ( 'NONE',  ( 0.000000000000000000, 0.000000000000000000, 100.0000000000000000 ) ) ;
#8 = DIRECTION ( 'NONE',  ( 0.000000000000000000, 0.000000000000000000, 1.000000000000000000 ) ) ;
#9 = VERTEX_POINT ( 'NONE', #193 ) ;
#10 = PERSON_AND_ORGANIZATION_ROLE ( 'creator' ) ;
#11 = COORDINATED_UNIVERSAL_TIME_OFFSET ( 1, 0, .AHEAD. ) ;
#12 = DIRECTION ( 'NONE',  ( 1.000000000000000000, 0.000000000000000000, -0.000000000000000000 ) ) ;
#13 = APPROVAL_DATE_TIME ( #176, #301 ) ;
#14 = APPROVAL_ROLE ( '' ) ;
#15 = DIRECTION ( 'NONE',  ( 1.000000000000000000, 0.000000000000000000, 0.000000000000000000 ) ) ;
#16 = AXIS2_PLACEMENT_3D ( 'NONE', #182, #229, #15 ) ;
#17 = VERTEX_POINT ( 'NONE', #97 ) ;
#18 = ORIENTED_EDGE ( 'NONE', *, *, #253, .F. ) ;
#19 = CARTESIAN_POINT ( 'NONE',  ( 0.000000000000000000, 0.000000000000000000, 5.199999999999996625 ) ) ;
#20 = CARTESIAN_POINT ( 'NONE',  ( 5.000000000000000888, 6.123233995736767268E-16, 100.0000000000000000 ) ) ;
#21 = TOROIDAL_SURFACE ( 'NONE', #194, 5.200000000000001066, 0.2000000000000000111 ) ;
#22 = DIRECTION ( 'NONE',  ( 1.000000000000000000, 0.000000000000000000, 0.000000000000000000 ) ) ;
#23 =( NAMED_UNIT ( * ) SI_UNIT ( $, .STERADIAN. ) SOLID_ANGLE_UNIT ( ) );
#24 = FACE_OUTER_BOUND ( 'NONE', #282, .T. ) ;
#25 = CARTESIAN_POINT ( 'NONE',  ( 0.000000000000000000, 0.000000000000000000, 0.000000000000000000 ) ) ;
#26 = TOROIDAL_SURFACE ( 'NONE', #63, 5.200000000000001066, 0.2000000000000000111 ) ;
#27 = APPROVAL_ROLE ( '' ) ;
#28 = CARTESIAN_POINT ( 'NONE',  ( 5.000000000000000888, 6.123233995736767268E-16, 5.199999999999996625 ) ) ;
#29 = VECTOR ( 'NONE', #48, 1000.000000000000000 ) ;
#30 = AXIS2_PLACEMENT_3D ( 'NONE', #210, #89, #280 ) ;
#31 = CC_DESIGN_PERSON_AND_ORGANIZATION_ASSIGNMENT ( #248, #273, ( #52 ) ) ;
#32 = DESIGN_CONTEXT ( 'detailed design', #157, 'design' ) ;
#33 = ORIENTED_EDGE ( 'NONE', *, *, #98, .F. ) ;
#34 = ORIENTED_EDGE ( 'NONE', *, *, #55, .F. ) ;
#35 = LOCAL_TIME ( 20, 2, 51.00000000000000000, #103 ) ;
#36 = PERSON_AND_ORGANIZATION ( #46, #71 ) ;
#37 = APPROVAL_DATE_TIME ( #183, #139 ) ;
#38 = APPLICATION_PROTOCOL_DEFINITION ( 'international standard', 'config_control_design', 1994, #111 ) ;
#39 = VERTEX_POINT ( 'NONE', #162 ) ;
#40 = ADVANCED_FACE ( 'NONE', ( #142 ), #263, .T. ) ;
#41 = DIRECTION ( 'NONE',  ( -1.000000000000000000, 0.000000000000000000, 0.000000000000000000 ) ) ;
#42 = DIRECTION ( 'NONE',  ( 0.000000000000000000, 0.000000000000000000, 1.000000000000000000 ) ) ;
#43 =( LENGTH_UNIT ( ) NAMED_UNIT ( * ) SI_UNIT ( .MILLI., .METRE. ) );
#44 =( NAMED_UNIT ( * ) PLANE_ANGLE_UNIT ( ) SI_UNIT ( $, .RADIAN. ) );
#45 = EDGE_CURVE ( 'NONE', #305, #209, #188, .T. ) ;
#46 = PERSON ( 'NEURÈENÝ', 'NEURÈENÝ', 'NEURÈENÝ', ('NEURÈENÝ'), ('NEURÈENÝ'), ('NEURÈENÝ') ) ;
#47 = ORIENTED_EDGE ( 'NONE', *, *, #243, .F. ) ;
#48 = DIRECTION ( 'NONE',  ( -0.000000000000000000, -0.000000000000000000, -1.000000000000000000 ) ) ;
#49 = CARTESIAN_POINT ( 'NONE',  ( 8.000000000000000000, 9.797174393178825657E-16, 5.000000000000000000 ) ) ;
#50 = AXIS2_PLACEMENT_3D ( 'NONE', #7, #200, #290 ) ;
#51 = EDGE_CURVE ( 'NONE', #93, #247, #214, .T. ) ;
#52 = PRODUCT_DEFINITION_FORMATION_WITH_SPECIFIED_SOURCE ( 'LIBOVOLNÝ', '', #218, .NOT_KNOWN. ) ;
#53 = PERSON_AND_ORGANIZATION ( #46, #71 ) ;
#54 = ORIENTED_EDGE ( 'NONE', *, *, #253, .T. ) ;
#55 = EDGE_CURVE ( 'NONE', #279, #128, #173, .T. ) ;
#56 = ORIENTED_EDGE ( 'NONE', *, *, #109, .F. ) ;
#57 = DIRECTION ( 'NONE',  ( 0.000000000000000000, 0.000000000000000000, 1.000000000000000000 ) ) ;
#58 = PERSON_AND_ORGANIZATION_ROLE ( 'classification_officer' ) ;
#59 = SHAPE_DEFINITION_REPRESENTATION ( #170, #266 ) ;
#60 = ORIENTED_EDGE ( 'NONE', *, *, #51, .F. ) ;
#61 = ORIENTED_EDGE ( 'NONE', *, *, #109, .T. ) ;
#62 = DIRECTION ( 'NONE',  ( 0.000000000000000000, 0.000000000000000000, -1.000000000000000000 ) ) ;
#63 = AXIS2_PLACEMENT_3D ( 'NONE', #269, #148, #104 ) ;
#64 = AXIS2_PLACEMENT_3D ( 'NONE', #81, #57, #12 ) ;
#65 = CARTESIAN_POINT ( 'NONE',  ( 0.000000000000000000, 0.000000000000000000, 5.000000000000000000 ) ) ;
#66 = ORIENTED_EDGE ( 'NONE', *, *, #202, .F. ) ;
#67 = ADVANCED_FACE ( 'NONE', ( #125 ), #127, .T. ) ;
#68 = CYLINDRICAL_SURFACE ( 'NONE', #208, 8.000000000000000000 ) ;
#69 = AXIS2_PLACEMENT_3D ( 'NONE', #264, #146, #237 ) ;
#70 = CARTESIAN_POINT ( 'NONE',  ( 0.000000000000000000, 0.000000000000000000, 100.0000000000000000 ) ) ;
#71 = ORGANIZATION ( 'NEURÈENÝ', 'NEURÈENÝ', '' ) ;
#72 = APPLICATION_PROTOCOL_DEFINITION ( 'international standard', 'config_control_design', 1994, #157 ) ;
#73 = AXIS2_PLACEMENT_3D ( 'NONE', #149, #293, #179 ) ;
#74 = APPROVAL_PERSON_ORGANIZATION ( #152, #301, #27 ) ;
#75 = CARTESIAN_POINT ( 'NONE',  ( 0.000000000000000000, 0.000000000000000000, 5.000000000000000000 ) ) ;
#76 = CALENDAR_DATE ( 2022, 27, 7 ) ;
#77 = EDGE_CURVE ( 'NONE', #250, #128, #287, .T. ) ;
#78 = FACE_OUTER_BOUND ( 'NONE', #181, .T. ) ;
#79 = DIRECTION ( 'NONE',  ( 0.000000000000000000, 0.000000000000000000, 1.000000000000000000 ) ) ;
#80 = CLOSED_SHELL ( 'NONE', ( #178, #145, #239, #67, #3, #221, #163, #40, #115 ) ) ;
#81 = CARTESIAN_POINT ( 'NONE',  ( 0.000000000000000000, 0.000000000000000000, 0.000000000000000000 ) ) ;
#82 = CARTESIAN_POINT ( 'NONE',  ( 0.000000000000000000, 0.000000000000000000, 5.000000000000000000 ) ) ;
#83 = ORIENTED_EDGE ( 'NONE', *, *, #216, .F. ) ;
#84 = CALENDAR_DATE ( 2022, 27, 7 ) ;
#85 = CC_DESIGN_DATE_AND_TIME_ASSIGNMENT ( #291, #107, ( #6 ) ) ;
#86 = ORIENTED_EDGE ( 'NONE', *, *, #121, .T. ) ;
#87 = MECHANICAL_CONTEXT ( 'NONE', #111, 'mechanical' ) ;
#88 = ORIENTED_EDGE ( 'NONE', *, *, #51, .T. ) ;
#89 = DIRECTION ( 'NONE',  ( 0.000000000000000000, 0.000000000000000000, 1.000000000000000000 ) ) ;
#90 = ORIENTED_EDGE ( 'NONE', *, *, #223, .T. ) ;
#91 = AXIS2_PLACEMENT_3D ( 'NONE', #244, #79, #177 ) ;
#92 = CIRCLE ( 'NONE', #189, 8.000000000000000000 ) ;
#93 = VERTEX_POINT ( 'NONE', #169 ) ;
#94 = DIRECTION ( 'NONE',  ( 0.000000000000000000, 0.000000000000000000, 1.000000000000000000 ) ) ;
#95 = DIRECTION ( 'NONE',  ( -1.000000000000000000, 0.000000000000000000, 0.000000000000000000 ) ) ;
#96 = CARTESIAN_POINT ( 'NONE',  ( 5.200000000000001066, 0.000000000000000000, 4.999999999999998224 ) ) ;
#97 = CARTESIAN_POINT ( 'NONE',  ( 8.000000000000000000, 9.797174393178825657E-16, 0.000000000000000000 ) ) ;
#98 = EDGE_CURVE ( 'NONE', #279, #305, #129, .T. ) ;
#99 = DIRECTION ( 'NONE',  ( -0.000000000000000000, -0.000000000000000000, -1.000000000000000000 ) ) ;
#100 = AXIS2_PLACEMENT_3D ( 'NONE', #25, #8, #102 ) ;
#101 = APPROVAL ( #246, 'NEURÈENÝ' ) ;
#102 = DIRECTION ( 'NONE',  ( 1.000000000000000000, 0.000000000000000000, 0.000000000000000000 ) ) ;
#103 = COORDINATED_UNIVERSAL_TIME_OFFSET ( 1, 0, .AHEAD. ) ;
#104 = DIRECTION ( 'NONE',  ( 1.000000000000000000, 0.000000000000000000, 0.000000000000000000 ) ) ;
#105 = ORIENTED_EDGE ( 'NONE', *, *, #202, .T. ) ;
#106 = DIRECTION ( 'NONE',  ( 1.000000000000000000, 0.000000000000000000, 0.000000000000000000 ) ) ;
#107 = DATE_TIME_ROLE ( 'creation_date' ) ;
#108 = ORIENTED_EDGE ( 'NONE', *, *, #268, .T. ) ;
#109 = EDGE_CURVE ( 'NONE', #247, #17, #288, .T. ) ;
#110 = ORIENTED_EDGE ( 'NONE', *, *, #286, .F. ) ;
#111 = APPLICATION_CONTEXT ( 'configuration controlled 3d designs of mechanical parts and assemblies' ) ;
#112 = DATE_TIME_ROLE ( 'classification_date' ) ;
#113 = ORIENTED_EDGE ( 'NONE', *, *, #77, .F. ) ;
#114 = ORIENTED_EDGE ( 'NONE', *, *, #77, .T. ) ;
#115 = ADVANCED_FACE ( 'NONE', ( #135 ), #26, .F. ) ;
#116 = CIRCLE ( 'NONE', #91, 8.000000000000000000 ) ;
#117 = DIRECTION ( 'NONE',  ( -0.000000000000000000, -0.000000000000000000, -1.000000000000000000 ) ) ;
#118 = AXIS2_PLACEMENT_3D ( 'NONE', #75, #175, #106 ) ;
#119 = DIRECTION ( 'NONE',  ( 1.000000000000000000, 0.000000000000000000, 0.000000000000000000 ) ) ;
#120 = CARTESIAN_POINT ( 'NONE',  ( -5.200000000000001066, 6.368163355566237368E-16, 4.999999999999998224 ) ) ;
#121 = EDGE_CURVE ( 'NONE', #17, #247, #116, .T. ) ;
#122 = CARTESIAN_POINT ( 'NONE',  ( 0.000000000000000000, 0.000000000000000000, 5.000000000000000000 ) ) ;
#123 = AXIS2_PLACEMENT_3D ( 'NONE', #122, #259, #119 ) ;
#124 = CC_DESIGN_APPROVAL ( #139, ( #215 ) ) ;
#125 = FACE_OUTER_BOUND ( 'NONE', #304, .T. ) ;
#126 = DIRECTION ( 'NONE',  ( 0.000000000000000000, -1.000000000000000000, 0.000000000000000000 ) ) ;
#127 = CYLINDRICAL_SURFACE ( 'NONE', #166, 8.000000000000000000 ) ;
#128 = VERTEX_POINT ( 'NONE', #28 ) ;
#129 = CIRCLE ( 'NONE', #69, 0.1999999999999996503 ) ;
#130 = PERSON_AND_ORGANIZATION ( #46, #71 ) ;
#131 = CYLINDRICAL_SURFACE ( 'NONE', #245, 5.000000000000000888 ) ;
#132 = FACE_OUTER_BOUND ( 'NONE', #153, .T. ) ;
#133 = AXIS2_PLACEMENT_3D ( 'NONE', #65, #187, #238 ) ;
#134 = APPROVAL_PERSON_ORGANIZATION ( #251, #139, #14 ) ;
#135 = FACE_OUTER_BOUND ( 'NONE', #285, .T. ) ;
#136 = LOCAL_TIME ( 20, 2, 51.00000000000000000, #138 ) ;
#137 = FACE_OUTER_BOUND ( 'NONE', #275, .T. ) ;
#138 = COORDINATED_UNIVERSAL_TIME_OFFSET ( 1, 0, .AHEAD. ) ;
#139 = APPROVAL ( #228, 'NEURÈENÝ' ) ;
#140 = ORIENTED_EDGE ( 'NONE', *, *, #216, .T. ) ;
#141 = EDGE_LOOP ( 'NONE', ( #1, #4, #86, #60 ) ) ;
#142 = FACE_OUTER_BOUND ( 'NONE', #160, .T. ) ;
#143 = VECTOR ( 'NONE', #99, 1000.000000000000000 ) ;
#144 = DIRECTION ( 'NONE',  ( 1.000000000000000000, 0.000000000000000000, -0.000000000000000000 ) ) ;
#145 = ADVANCED_FACE ( 'NONE', ( #132 ), #131, .T. ) ;
#146 = DIRECTION ( 'NONE',  ( 1.224646799147353207E-16, 1.000000000000000000, -0.000000000000000000 ) ) ;
#147 = AXIS2_PLACEMENT_3D ( 'NONE', #70, #94, #144 ) ;
#148 = DIRECTION ( 'NONE',  ( 0.000000000000000000, 0.000000000000000000, 1.000000000000000000 ) ) ;
#149 = CARTESIAN_POINT ( 'NONE',  ( 0.000000000000000000, 0.000000000000000000, 100.0000000000000000 ) ) ;
#150 = VECTOR ( 'NONE', #196, 1000.000000000000000 ) ;
#151 = AXIS2_PLACEMENT_3D ( 'NONE', #19, #306, #234 ) ;
#152 = PERSON_AND_ORGANIZATION ( #46, #71 ) ;
#153 = EDGE_LOOP ( 'NONE', ( #66, #114, #54, #206 ) ) ;
#154 = ORIENTED_EDGE ( 'NONE', *, *, #167, .T. ) ;
#155 = VECTOR ( 'NONE', #241, 1000.000000000000000 ) ;
#156 = CC_DESIGN_SECURITY_CLASSIFICATION ( #215, ( #52 ) ) ;
#157 = APPLICATION_CONTEXT ( 'configuration controlled 3d designs of mechanical parts and assemblies' ) ;
#158 = CC_DESIGN_PERSON_AND_ORGANIZATION_ASSIGNMENT ( #130, #235, ( #218 ) ) ;
#159 = SECURITY_CLASSIFICATION_LEVEL ( 'unclassified' ) ;
#160 = EDGE_LOOP ( 'NONE', ( #284, #105 ) ) ;
#161 =( GEOMETRIC_REPRESENTATION_CONTEXT ( 3 ) GLOBAL_UNCERTAINTY_ASSIGNED_CONTEXT ( ( #232 ) ) GLOBAL_UNIT_ASSIGNED_CONTEXT ( ( #43, #44, #23 ) ) REPRESENTATION_CONTEXT ( 'NONE', 'WORKASPACE' ) );
#162 = CARTESIAN_POINT ( 'NONE',  ( -5.000000000000000888, 0.000000000000000000, 100.0000000000000000 ) ) ;
#163 = ADVANCED_FACE ( 'NONE', ( #78 ), #271, .T. ) ;
#164 = ORIENTED_EDGE ( 'NONE', *, *, #268, .F. ) ;
#165 = PLANE ( 'NONE',  #133 ) ;
#166 = AXIS2_PLACEMENT_3D ( 'NONE', #191, #2, #95 ) ;
#167 = EDGE_CURVE ( 'NONE', #39, #279, #220, .T. ) ;
#168 = CIRCLE ( 'NONE', #151, 5.000000000000000888 ) ;
#169 = CARTESIAN_POINT ( 'NONE',  ( -8.000000000000000000, 0.000000000000000000, 5.000000000000000000 ) ) ;
#170 = PRODUCT_DEFINITION_SHAPE ( 'NONE', 'NONE',  #6 ) ;
#171 = CARTESIAN_POINT ( 'NONE',  ( 0.000000000000000000, 0.000000000000000000, 5.199999999999996625 ) ) ;
#172 = EDGE_CURVE ( 'NONE', #9, #17, #197, .T. ) ;
#173 = CIRCLE ( 'NONE', #256, 5.000000000000000888 ) ;
#174 = AXIS2_PLACEMENT_3D ( 'NONE', #236, #126, #62 ) ;
#175 = DIRECTION ( 'NONE',  ( 0.000000000000000000, 0.000000000000000000, 1.000000000000000000 ) ) ;
#176 = DATE_AND_TIME ( #76, #296 ) ;
#177 = DIRECTION ( 'NONE',  ( 1.000000000000000000, 0.000000000000000000, 0.000000000000000000 ) ) ;
#178 = ADVANCED_FACE ( 'NONE', ( #300 ), #21, .F. ) ;
#179 = DIRECTION ( 'NONE',  ( -1.000000000000000000, 0.000000000000000000, 0.000000000000000000 ) ) ;
#180 = PERSON_AND_ORGANIZATION_ROLE ( 'design_supplier' ) ;
#181 = EDGE_LOOP ( 'NONE', ( #113, #110, #154, #211 ) ) ;
#182 = CARTESIAN_POINT ( 'NONE',  ( 0.000000000000000000, 0.000000000000000000, 0.000000000000000000 ) ) ;
#183 = DATE_AND_TIME ( #230, #249 ) ;
#184 = ORIENTED_EDGE ( 'NONE', *, *, #45, .T. ) ;
#185 = EDGE_LOOP ( 'NONE', ( #34, #213, #47, #164 ) ) ;
#186 = CC_DESIGN_PERSON_AND_ORGANIZATION_ASSIGNMENT ( #36, #180, ( #52 ) ) ;
#187 = DIRECTION ( 'NONE',  ( 0.000000000000000000, 0.000000000000000000, 1.000000000000000000 ) ) ;
#188 = CIRCLE ( 'NONE', #123, 5.200000000000001066 ) ;
#189 = AXIS2_PLACEMENT_3D ( 'NONE', #82, #283, #258 ) ;
#190 = FACE_BOUND ( 'NONE', #277, .T. ) ;
#191 = CARTESIAN_POINT ( 'NONE',  ( 0.000000000000000000, 0.000000000000000000, 5.000000000000000000 ) ) ;
#192 = CC_DESIGN_DATE_AND_TIME_ASSIGNMENT ( #302, #112, ( #215 ) ) ;
#193 = CARTESIAN_POINT ( 'NONE',  ( 8.000000000000000000, 9.797174393178825657E-16, 5.000000000000000000 ) ) ;
#194 = AXIS2_PLACEMENT_3D ( 'NONE', #171, #265, #195 ) ;
#195 = DIRECTION ( 'NONE',  ( 1.000000000000000000, 0.000000000000000000, 0.000000000000000000 ) ) ;
#196 = DIRECTION ( 'NONE',  ( -0.000000000000000000, -0.000000000000000000, -1.000000000000000000 ) ) ;
#197 = LINE ( 'NONE', #49, #155 ) ;
#198 = CIRCLE ( 'NONE', #50, 5.000000000000000888 ) ;
#199 = COORDINATED_UNIVERSAL_TIME_OFFSET ( 1, 0, .AHEAD. ) ;
#200 = DIRECTION ( 'NONE',  ( 0.000000000000000000, 0.000000000000000000, 1.000000000000000000 ) ) ;
#201 = CARTESIAN_POINT ( 'NONE',  ( 0.000000000000000000, 0.000000000000000000, 100.0000000000000000 ) ) ;
#202 = EDGE_CURVE ( 'NONE', #250, #39, #198, .T. ) ;
#203 = DIRECTION ( 'NONE',  ( -0.000000000000000000, -0.000000000000000000, -1.000000000000000000 ) ) ;
#204 = CC_DESIGN_APPROVAL ( #301, ( #52 ) ) ;
#205 = PERSON_AND_ORGANIZATION ( #46, #71 ) ;
#206 = ORIENTED_EDGE ( 'NONE', *, *, #167, .F. ) ;
#207 = COORDINATED_UNIVERSAL_TIME_OFFSET ( 1, 0, .AHEAD. ) ;
#208 = AXIS2_PLACEMENT_3D ( 'NONE', #252, #117, #41 ) ;
#209 = VERTEX_POINT ( 'NONE', #96 ) ;
#210 = CARTESIAN_POINT ( 'NONE',  ( 0.000000000000000000, 0.000000000000000000, 100.0000000000000000 ) ) ;
#211 = ORIENTED_EDGE ( 'NONE', *, *, #55, .T. ) ;
#212 = CARTESIAN_POINT ( 'NONE',  ( 0.000000000000000000, 0.000000000000000000, 5.000000000000000000 ) ) ;
#213 = ORIENTED_EDGE ( 'NONE', *, *, #98, .T. ) ;
#214 = LINE ( 'NONE', #217, #150 ) ;
#215 = SECURITY_CLASSIFICATION ( '', '', #159 ) ;
#216 = EDGE_CURVE ( 'NONE', #93, #9, #227, .T. ) ;
#217 = CARTESIAN_POINT ( 'NONE',  ( -8.000000000000000000, 0.000000000000000000, 5.000000000000000000 ) ) ;
#218 = PRODUCT ( '411a', '411a', '', ( #87 ) ) ;
#219 = ORIENTED_EDGE ( 'NONE', *, *, #45, .F. ) ;
#220 = LINE ( 'NONE', #5, #143 ) ;
#221 = ADVANCED_FACE ( 'NONE', ( #137 ), #298, .F. ) ;
#222 = APPROVAL_PERSON_ORGANIZATION ( #53, #101, #226 ) ;
#223 = EDGE_CURVE ( 'NONE', #9, #93, #92, .T. ) ;
#224 = MANIFOLD_SOLID_BREP ( 'Zaoblit1', #80 ) ;
#225 = CALENDAR_DATE ( 2022, 27, 7 ) ;
#226 = APPROVAL_ROLE ( '' ) ;
#227 = CIRCLE ( 'NONE', #118, 8.000000000000000000 ) ;
#228 = APPROVAL_STATUS ( 'not_yet_approved' ) ;
#229 = DIRECTION ( 'NONE',  ( 0.000000000000000000, 0.000000000000000000, 1.000000000000000000 ) ) ;
#230 = CALENDAR_DATE ( 2022, 27, 7 ) ;
#231 = CC_DESIGN_PERSON_AND_ORGANIZATION_ASSIGNMENT ( #274, #58, ( #215 ) ) ;
#232 = UNCERTAINTY_MEASURE_WITH_UNIT (LENGTH_MEASURE( 1.000000000000000082E-05 ), #43, 'distance_accuracy_value', 'NONE');
#233 = CARTESIAN_POINT ( 'NONE',  ( 0.000000000000000000, 0.000000000000000000, 5.199999999999996625 ) ) ;
#234 = DIRECTION ( 'NONE',  ( 1.000000000000000000, 0.000000000000000000, 0.000000000000000000 ) ) ;
#235 = PERSON_AND_ORGANIZATION_ROLE ( 'design_owner' ) ;
#236 = CARTESIAN_POINT ( 'NONE',  ( 5.200000000000001066, 0.000000000000000000, 5.199999999999996625 ) ) ;
#237 = DIRECTION ( 'NONE',  ( -1.000000000000000000, 1.224646799147353454E-16, 0.000000000000000000 ) ) ;
#238 = DIRECTION ( 'NONE',  ( 1.000000000000000000, 0.000000000000000000, -0.000000000000000000 ) ) ;
#239 = ADVANCED_FACE ( 'NONE', ( #260 ), #68, .T. ) ;
#240 = LOCAL_TIME ( 20, 2, 51.00000000000000000, #11 ) ;
#241 = DIRECTION ( 'NONE',  ( -0.000000000000000000, -0.000000000000000000, -1.000000000000000000 ) ) ;
#242 = APPROVAL_STATUS ( 'not_yet_approved' ) ;
#243 = EDGE_CURVE ( 'NONE', #209, #305, #303, .T. ) ;
#244 = CARTESIAN_POINT ( 'NONE',  ( 0.000000000000000000, 0.000000000000000000, 0.000000000000000000 ) ) ;
#245 = AXIS2_PLACEMENT_3D ( 'NONE', #201, #203, #292 ) ;
#246 = APPROVAL_STATUS ( 'not_yet_approved' ) ;
#247 = VERTEX_POINT ( 'NONE', #278 ) ;
#248 = PERSON_AND_ORGANIZATION ( #46, #71 ) ;
#249 = LOCAL_TIME ( 20, 2, 51.00000000000000000, #207 ) ;
#250 = VERTEX_POINT ( 'NONE', #254 ) ;
#251 = PERSON_AND_ORGANIZATION ( #46, #71 ) ;
#252 = CARTESIAN_POINT ( 'NONE',  ( 0.000000000000000000, 0.000000000000000000, 5.000000000000000000 ) ) ;
#253 = EDGE_CURVE ( 'NONE', #128, #279, #168, .T. ) ;
#254 = CARTESIAN_POINT ( 'NONE',  ( 5.000000000000000888, 6.123233995736767268E-16, 100.0000000000000000 ) ) ;
#255 = ORIENTED_EDGE ( 'NONE', *, *, #121, .F. ) ;
#256 = AXIS2_PLACEMENT_3D ( 'NONE', #233, #42, #22 ) ;
#257 = CIRCLE ( 'NONE', #174, 0.1999999999999996503 ) ;
#258 = DIRECTION ( 'NONE',  ( 1.000000000000000000, 0.000000000000000000, 0.000000000000000000 ) ) ;
#259 = DIRECTION ( 'NONE',  ( -0.000000000000000000, -0.000000000000000000, -1.000000000000000000 ) ) ;
#260 = FACE_OUTER_BOUND ( 'NONE', #141, .T. ) ;
#261 = DIRECTION ( 'NONE',  ( -0.000000000000000000, -0.000000000000000000, -1.000000000000000000 ) ) ;
#262 = CIRCLE ( 'NONE', #30, 5.000000000000000888 ) ;
#263 = PLANE ( 'NONE',  #147 ) ;
#264 = CARTESIAN_POINT ( 'NONE',  ( -5.200000000000001066, 6.368163355566237368E-16, 5.199999999999996625 ) ) ;
#265 = DIRECTION ( 'NONE',  ( 0.000000000000000000, 0.000000000000000000, 1.000000000000000000 ) ) ;
#266 = ADVANCED_BREP_SHAPE_REPRESENTATION ( '411a', ( #224, #16 ), #161 ) ;
#267 = CC_DESIGN_APPROVAL ( #101, ( #6 ) ) ;
#268 = EDGE_CURVE ( 'NONE', #128, #209, #257, .T. ) ;
#269 = CARTESIAN_POINT ( 'NONE',  ( 0.000000000000000000, 0.000000000000000000, 5.199999999999996625 ) ) ;
#270 = DATE_AND_TIME ( #225, #240 ) ;
#271 = CYLINDRICAL_SURFACE ( 'NONE', #73, 5.000000000000000888 ) ;
#272 = CALENDAR_DATE ( 2022, 27, 7 ) ;
#273 = PERSON_AND_ORGANIZATION_ROLE ( 'creator' ) ;
#274 = PERSON_AND_ORGANIZATION ( #46, #71 ) ;
#275 = EDGE_LOOP ( 'NONE', ( #56, #255 ) ) ;
#276 = CARTESIAN_POINT ( 'NONE',  ( -5.000000000000000888, 0.000000000000000000, 5.199999999999996625 ) ) ;
#277 = EDGE_LOOP ( 'NONE', ( #299, #184 ) ) ;
#278 = CARTESIAN_POINT ( 'NONE',  ( -8.000000000000000000, 0.000000000000000000, 0.000000000000000000 ) ) ;
#279 = VERTEX_POINT ( 'NONE', #276 ) ;
#280 = DIRECTION ( 'NONE',  ( 1.000000000000000000, 0.000000000000000000, 0.000000000000000000 ) ) ;
#281 = PRODUCT_RELATED_PRODUCT_CATEGORY ( 'detail', '', ( #218 ) ) ;
#282 = EDGE_LOOP ( 'NONE', ( #140, #90 ) ) ;
#283 = DIRECTION ( 'NONE',  ( 0.000000000000000000, 0.000000000000000000, 1.000000000000000000 ) ) ;
#284 = ORIENTED_EDGE ( 'NONE', *, *, #286, .T. ) ;
#285 = EDGE_LOOP ( 'NONE', ( #33, #18, #108, #219 ) ) ;
#286 = EDGE_CURVE ( 'NONE', #39, #250, #262, .T. ) ;
#287 = LINE ( 'NONE', #20, #29 ) ;
#288 = CIRCLE ( 'NONE', #100, 8.000000000000000000 ) ;
#289 = AXIS2_PLACEMENT_3D ( 'NONE', #212, #261, #307 ) ;
#290 = DIRECTION ( 'NONE',  ( 1.000000000000000000, 0.000000000000000000, 0.000000000000000000 ) ) ;
#291 = DATE_AND_TIME ( #272, #35 ) ;
#292 = DIRECTION ( 'NONE',  ( -1.000000000000000000, 0.000000000000000000, 0.000000000000000000 ) ) ;
#293 = DIRECTION ( 'NONE',  ( -0.000000000000000000, -0.000000000000000000, -1.000000000000000000 ) ) ;
#294 = CC_DESIGN_PERSON_AND_ORGANIZATION_ASSIGNMENT ( #205, #10, ( #6 ) ) ;
#295 = APPROVAL_DATE_TIME ( #270, #101 ) ;
#296 = LOCAL_TIME ( 20, 2, 51.00000000000000000, #199 ) ;
#297 = ORIENTED_EDGE ( 'NONE', *, *, #172, .F. ) ;
#298 = PLANE ( 'NONE',  #64 ) ;
#299 = ORIENTED_EDGE ( 'NONE', *, *, #243, .T. ) ;
#300 = FACE_OUTER_BOUND ( 'NONE', #185, .T. ) ;
#301 = APPROVAL ( #242, 'NEURÈENÝ' ) ;
#302 = DATE_AND_TIME ( #84, #136 ) ;
#303 = CIRCLE ( 'NONE', #289, 5.200000000000001066 ) ;
#304 = EDGE_LOOP ( 'NONE', ( #297, #83, #88, #61 ) ) ;
#305 = VERTEX_POINT ( 'NONE', #120 ) ;
#306 = DIRECTION ( 'NONE',  ( 0.000000000000000000, 0.000000000000000000, 1.000000000000000000 ) ) ;
#307 = DIRECTION ( 'NONE',  ( 1.000000000000000000, 0.000000000000000000, 0.000000000000000000 ) ) ;
ENDSEC;
END-ISO-10303-21;
