ISO-10303-21;
HEADER;
FILE_DESCRIPTION (( 'STEP AP203' ),
    '1' );
FILE_NAME ('1256.STEP',
    '2022-07-07T09:48:44',
    ( '' ),
    ( '' ),
    'SwSTEP 2.0',
    'SolidWorks 2019',
    '' );
FILE_SCHEMA (( 'CONFIG_CONTROL_DESIGN' ));
ENDSEC;

DATA;
#1 = DIRECTION ( 'NONE',  ( 1.000000000000000000, 0.000000000000000000, 0.000000000000000000 ) ) ;
#2 = CIRCLE ( 'NONE', #127, 0.1999999999999996503 ) ;
#3 = VERTEX_POINT ( 'NONE', #188 ) ;
#4 = ORIENTED_EDGE ( 'NONE', *, *, #155, .T. ) ;
#5 = AXIS2_PLACEMENT_3D ( 'NONE', #29, #24, #221 ) ;
#6 = AXIS2_PLACEMENT_3D ( 'NONE', #307, #22, #200 ) ;
#7 = VERTEX_POINT ( 'NONE', #297 ) ;
#8 = APPROVAL ( #180, 'NEURÈENÝ' ) ;
#9 = EDGE_LOOP ( 'NONE', ( #60, #34 ) ) ;
#10 = DIRECTION ( 'NONE',  ( 0.000000000000000000, 0.000000000000000000, 1.000000000000000000 ) ) ;
#11 = VERTEX_POINT ( 'NONE', #64 ) ;
#12 = CC_DESIGN_DATE_AND_TIME_ASSIGNMENT ( #51, #211, ( #179 ) ) ;
#13 = CYLINDRICAL_SURFACE ( 'NONE', #257, 8.000000000000000000 ) ;
#14 = CC_DESIGN_PERSON_AND_ORGANIZATION_ASSIGNMENT ( #149, #124, ( #93 ) ) ;
#15 = VECTOR ( 'NONE', #183, 1000.000000000000000 ) ;
#16 = CARTESIAN_POINT ( 'NONE',  ( 8.000000000000000000, 9.797174393178825657E-16, 0.000000000000000000 ) ) ;
#17 = LOCAL_TIME ( 11, 48, 44.00000000000000000, #201 ) ;
#18 = COORDINATED_UNIVERSAL_TIME_OFFSET ( 1, 0, .AHEAD. ) ;
#19 = AXIS2_PLACEMENT_3D ( 'NONE', #258, #272, #94 ) ;
#20 = CYLINDRICAL_SURFACE ( 'NONE', #250, 5.500000000000000000 ) ;
#21 = CARTESIAN_POINT ( 'NONE',  ( 0.000000000000000000, 0.000000000000000000, 5.199999999999982414 ) ) ;
#22 = DIRECTION ( 'NONE',  ( 0.000000000000000000, 0.000000000000000000, 1.000000000000000000 ) ) ;
#23 = APPROVAL ( #301, 'NEURÈENÝ' ) ;
#24 = DIRECTION ( 'NONE',  ( 0.000000000000000000, 0.000000000000000000, 1.000000000000000000 ) ) ;
#25 = PERSON_AND_ORGANIZATION_ROLE ( 'classification_officer' ) ;
#26 = FACE_OUTER_BOUND ( 'NONE', #189, .T. ) ;
#27 = CIRCLE ( 'NONE', #169, 8.000000000000000000 ) ;
#28 = PRODUCT ( '1256', '1256', '', ( #260 ) ) ;
#29 = CARTESIAN_POINT ( 'NONE',  ( 0.000000000000000000, 0.000000000000000000, 5.199999999999982414 ) ) ;
#30 = CC_DESIGN_PERSON_AND_ORGANIZATION_ASSIGNMENT ( #298, #306, ( #28 ) ) ;
#31 = PERSON ( 'NEURÈENÝ', 'NEURÈENÝ', 'NEURÈENÝ', ('NEURÈENÝ'), ('NEURÈENÝ'), ('NEURÈENÝ') ) ;
#32 = AXIS2_PLACEMENT_3D ( 'NONE', #233, #232, #254 ) ;
#33 = EDGE_LOOP ( 'NONE', ( #37, #85, #228, #210 ) ) ;
#34 = ORIENTED_EDGE ( 'NONE', *, *, #108, .F. ) ;
#35 = EDGE_LOOP ( 'NONE', ( #230, #39, #224, #83 ) ) ;
#36 = ORIENTED_EDGE ( 'NONE', *, *, #74, .F. ) ;
#37 = ORIENTED_EDGE ( 'NONE', *, *, #140, .F. ) ;
#38 = FACE_OUTER_BOUND ( 'NONE', #9, .T. ) ;
#39 = ORIENTED_EDGE ( 'NONE', *, *, #231, .F. ) ;
#40 = CIRCLE ( 'NONE', #132, 0.1999999999999996503 ) ;
#41 = APPLICATION_CONTEXT ( 'configuration controlled 3d designs of mechanical parts and assemblies' ) ;
#42 = LOCAL_TIME ( 11, 48, 44.00000000000000000, #91 ) ;
#43 = DIRECTION ( 'NONE',  ( 1.000000000000000000, 0.000000000000000000, 0.000000000000000000 ) ) ;
#44 = LOCAL_TIME ( 11, 48, 44.00000000000000000, #284 ) ;
#45 = DIRECTION ( 'NONE',  ( -0.000000000000000000, -0.000000000000000000, -1.000000000000000000 ) ) ;
#46 = DATE_AND_TIME ( #69, #139 ) ;
#47 = FACE_OUTER_BOUND ( 'NONE', #203, .T. ) ;
#48 = SECURITY_CLASSIFICATION_LEVEL ( 'unclassified' ) ;
#49 = PERSON_AND_ORGANIZATION ( #31, #110 ) ;
#50 = DIRECTION ( 'NONE',  ( -0.000000000000000000, -0.000000000000000000, -1.000000000000000000 ) ) ;
#51 = DATE_AND_TIME ( #281, #295 ) ;
#52 = TOROIDAL_SURFACE ( 'NONE', #5, 5.699999999999999289, 0.2000000000000000111 ) ;
#53 = CARTESIAN_POINT ( 'NONE',  ( 0.000000000000000000, 0.000000000000000000, 320.0000000000000000 ) ) ;
#54 = ADVANCED_FACE ( 'NONE', ( #268 ), #13, .T. ) ;
#55 = VERTEX_POINT ( 'NONE', #106 ) ;
#56 = AXIS2_PLACEMENT_3D ( 'NONE', #171, #303, #154 ) ;
#57 = ORIENTED_EDGE ( 'NONE', *, *, #219, .T. ) ;
#58 = EDGE_LOOP ( 'NONE', ( #249, #36, #293, #80 ) ) ;
#59 = CYLINDRICAL_SURFACE ( 'NONE', #247, 8.000000000000000000 ) ;
#60 = ORIENTED_EDGE ( 'NONE', *, *, #181, .F. ) ;
#61 = AXIS2_PLACEMENT_3D ( 'NONE', #245, #151, #173 ) ;
#62 = CARTESIAN_POINT ( 'NONE',  ( 0.000000000000000000, 0.000000000000000000, 320.0000000000000000 ) ) ;
#63 = EDGE_LOOP ( 'NONE', ( #287, #205, #57, #207 ) ) ;
#64 = CARTESIAN_POINT ( 'NONE',  ( 5.500000000000000000, 6.735557395310442023E-16, 320.0000000000000000 ) ) ;
#65 = CIRCLE ( 'NONE', #177, 8.000000000000000000 ) ;
#66 = CC_DESIGN_DATE_AND_TIME_ASSIGNMENT ( #121, #218, ( #182 ) ) ;
#67 = APPROVAL ( #234, 'NEURÈENÝ' ) ;
#68 = AXIS2_PLACEMENT_3D ( 'NONE', #290, #104, #206 ) ;
#69 = CALENDAR_DATE ( 2022, 7, 7 ) ;
#70 = PRODUCT_RELATED_PRODUCT_CATEGORY ( 'detail', '', ( #28 ) ) ;
#71 = CARTESIAN_POINT ( 'NONE',  ( -5.699999999999999289, 6.980486755139912122E-16, 5.199999999999982414 ) ) ;
#72 = APPROVAL_ROLE ( '' ) ;
#73 = DIRECTION ( 'NONE',  ( -1.000000000000000000, 0.000000000000000000, 0.000000000000000000 ) ) ;
#74 = EDGE_CURVE ( 'NONE', #55, #131, #288, .T. ) ;
#75 = DIRECTION ( 'NONE',  ( -1.000000000000000000, 1.224646799147353454E-16, 0.000000000000000000 ) ) ;
#76 = PERSON_AND_ORGANIZATION ( #31, #110 ) ;
#77 = CIRCLE ( 'NONE', #81, 5.699999999999999289 ) ;
#78 = EDGE_CURVE ( 'NONE', #131, #55, #120, .T. ) ;
#79 = SHAPE_DEFINITION_REPRESENTATION ( #282, #145 ) ;
#80 = ORIENTED_EDGE ( 'NONE', *, *, #265, .F. ) ;
#81 = AXIS2_PLACEMENT_3D ( 'NONE', #90, #262, #1 ) ;
#82 = VERTEX_POINT ( 'NONE', #229 ) ;
#83 = ORIENTED_EDGE ( 'NONE', *, *, #78, .T. ) ;
#84 = EDGE_CURVE ( 'NONE', #3, #131, #292, .T. ) ;
#85 = ORIENTED_EDGE ( 'NONE', *, *, #170, .T. ) ;
#86 = ORIENTED_EDGE ( 'NONE', *, *, #222, .T. ) ;
#87 = CC_DESIGN_APPROVAL ( #67, ( #179 ) ) ;
#88 = CARTESIAN_POINT ( 'NONE',  ( 0.000000000000000000, 0.000000000000000000, 5.000000000000000000 ) ) ;
#89 = CARTESIAN_POINT ( 'NONE',  ( 0.000000000000000000, 0.000000000000000000, 5.000000000000000000 ) ) ;
#90 = CARTESIAN_POINT ( 'NONE',  ( 0.000000000000000000, 0.000000000000000000, 5.000000000000000000 ) ) ;
#91 = COORDINATED_UNIVERSAL_TIME_OFFSET ( 1, 0, .AHEAD. ) ;
#92 = DIRECTION ( 'NONE',  ( 0.000000000000000000, -1.000000000000000000, 0.000000000000000000 ) ) ;
#93 = PRODUCT_DEFINITION_FORMATION_WITH_SPECIFIED_SOURCE ( 'LIBOVOLNÝ', '', #28, .NOT_KNOWN. ) ;
#94 = DIRECTION ( 'NONE',  ( 1.000000000000000000, 0.000000000000000000, -0.000000000000000000 ) ) ;
#95 = CARTESIAN_POINT ( 'NONE',  ( 0.000000000000000000, 0.000000000000000000, 320.0000000000000000 ) ) ;
#96 = CALENDAR_DATE ( 2022, 7, 7 ) ;
#97 = APPLICATION_PROTOCOL_DEFINITION ( 'international standard', 'config_control_design', 1994, #148 ) ;
#98 = CARTESIAN_POINT ( 'NONE',  ( -8.000000000000000000, 0.000000000000000000, 5.000000000000000000 ) ) ;
#99 = EDGE_CURVE ( 'NONE', #7, #209, #27, .T. ) ;
#100 = DATE_AND_TIME ( #96, #44 ) ;
#101 = ORIENTED_EDGE ( 'NONE', *, *, #235, .T. ) ;
#102 = ADVANCED_FACE ( 'NONE', ( #267 ), #266, .T. ) ;
#103 = CIRCLE ( 'NONE', #61, 8.000000000000000000 ) ;
#104 = DIRECTION ( 'NONE',  ( 0.000000000000000000, 0.000000000000000000, 1.000000000000000000 ) ) ;
#105 = VERTEX_POINT ( 'NONE', #16 ) ;
#106 = CARTESIAN_POINT ( 'NONE',  ( 5.500000000000000000, 6.735557395310442023E-16, 5.199999999999982414 ) ) ;
#107 = ORIENTED_EDGE ( 'NONE', *, *, #231, .T. ) ;
#108 = EDGE_CURVE ( 'NONE', #105, #82, #65, .T. ) ;
#109 = VERTEX_POINT ( 'NONE', #168 ) ;
#110 = ORGANIZATION ( 'NEURÈENÝ', 'NEURÈENÝ', '' ) ;
#111 = CARTESIAN_POINT ( 'NONE',  ( 0.000000000000000000, 0.000000000000000000, 0.000000000000000000 ) ) ;
#112 = FACE_OUTER_BOUND ( 'NONE', #157, .T. ) ;
#113 = ADVANCED_FACE ( 'NONE', ( #208 ), #59, .T. ) ;
#114 = CIRCLE ( 'NONE', #6, 5.500000000000000000 ) ;
#115 = CARTESIAN_POINT ( 'NONE',  ( 8.000000000000000000, 9.797174393178825657E-16, 5.000000000000000000 ) ) ;
#116 =( LENGTH_UNIT ( ) NAMED_UNIT ( * ) SI_UNIT ( .MILLI., .METRE. ) );
#117 = DIRECTION ( 'NONE',  ( 0.000000000000000000, 0.000000000000000000, 1.000000000000000000 ) ) ;
#118 = ADVANCED_FACE ( 'NONE', ( #38 ), #136, .F. ) ;
#119 = DIRECTION ( 'NONE',  ( 1.000000000000000000, 0.000000000000000000, 0.000000000000000000 ) ) ;
#120 = CIRCLE ( 'NONE', #32, 5.500000000000000000 ) ;
#121 = DATE_AND_TIME ( #178, #17 ) ;
#122 = DIRECTION ( 'NONE',  ( 1.000000000000000000, 0.000000000000000000, 0.000000000000000000 ) ) ;
#123 = DIRECTION ( 'NONE',  ( -0.000000000000000000, -0.000000000000000000, -1.000000000000000000 ) ) ;
#124 = PERSON_AND_ORGANIZATION_ROLE ( 'creator' ) ;
#125 = PERSON_AND_ORGANIZATION ( #31, #110 ) ;
#126 = DIRECTION ( 'NONE',  ( 0.000000000000000000, 0.000000000000000000, 1.000000000000000000 ) ) ;
#127 = AXIS2_PLACEMENT_3D ( 'NONE', #256, #92, #147 ) ;
#128 = ADVANCED_FACE ( 'NONE', ( #280 ), #52, .F. ) ;
#129 = VERTEX_POINT ( 'NONE', #302 ) ;
#130 = ORIENTED_EDGE ( 'NONE', *, *, #78, .F. ) ;
#131 = VERTEX_POINT ( 'NONE', #283 ) ;
#132 = AXIS2_PLACEMENT_3D ( 'NONE', #71, #214, #75 ) ;
#133 = ORIENTED_EDGE ( 'NONE', *, *, #275, .T. ) ;
#134 = EDGE_LOOP ( 'NONE', ( #133, #263 ) ) ;
#135 = ADVANCED_FACE ( 'NONE', ( #26 ), #241, .T. ) ;
#136 = PLANE ( 'NONE',  #56 ) ;
#137 = EDGE_LOOP ( 'NONE', ( #163, #101, #248, #159 ) ) ;
#138 = PLANE ( 'NONE',  #19 ) ;
#139 = LOCAL_TIME ( 11, 48, 44.00000000000000000, #193 ) ;
#140 = EDGE_CURVE ( 'NONE', #11, #3, #217, .T. ) ;
#141 =( GEOMETRIC_REPRESENTATION_CONTEXT ( 3 ) GLOBAL_UNCERTAINTY_ASSIGNED_CONTEXT ( ( #144 ) ) GLOBAL_UNIT_ASSIGNED_CONTEXT ( ( #116, #213, #199 ) ) REPRESENTATION_CONTEXT ( 'NONE', 'WORKASPACE' ) );
#142 = APPLICATION_PROTOCOL_DEFINITION ( 'international standard', 'config_control_design', 1994, #41 ) ;
#143 = CARTESIAN_POINT ( 'NONE',  ( 5.500000000000000000, 6.735557395310442023E-16, 320.0000000000000000 ) ) ;
#144 = UNCERTAINTY_MEASURE_WITH_UNIT (LENGTH_MEASURE( 1.000000000000000082E-05 ), #116, 'distance_accuracy_value', 'NONE');
#145 = ADVANCED_BREP_SHAPE_REPRESENTATION ( '1256', ( #225, #186 ), #141 ) ;
#146 = PERSON_AND_ORGANIZATION_ROLE ( 'creator' ) ;
#147 = DIRECTION ( 'NONE',  ( 0.000000000000000000, 0.000000000000000000, -1.000000000000000000 ) ) ;
#148 = APPLICATION_CONTEXT ( 'configuration controlled 3d designs of mechanical parts and assemblies' ) ;
#149 = PERSON_AND_ORGANIZATION ( #31, #110 ) ;
#150 = DATE_AND_TIME ( #238, #42 ) ;
#151 = DIRECTION ( 'NONE',  ( 0.000000000000000000, 0.000000000000000000, 1.000000000000000000 ) ) ;
#152 = AXIS2_PLACEMENT_3D ( 'NONE', #239, #126, #220 ) ;
#153 = CIRCLE ( 'NONE', #152, 8.000000000000000000 ) ;
#154 = DIRECTION ( 'NONE',  ( 1.000000000000000000, 0.000000000000000000, -0.000000000000000000 ) ) ;
#155 = EDGE_CURVE ( 'NONE', #131, #109, #40, .T. ) ;
#156 = EDGE_CURVE ( 'NONE', #55, #129, #2, .T. ) ;
#157 = EDGE_LOOP ( 'NONE', ( #86, #184 ) ) ;
#158 = CC_DESIGN_PERSON_AND_ORGANIZATION_ASSIGNMENT ( #76, #25, ( #182 ) ) ;
#159 = ORIENTED_EDGE ( 'NONE', *, *, #219, .F. ) ;
#160 = ADVANCED_FACE ( 'NONE', ( #175 ), #20, .T. ) ;
#161 = DIRECTION ( 'NONE',  ( -1.000000000000000000, 0.000000000000000000, 0.000000000000000000 ) ) ;
#162 = DIRECTION ( 'NONE',  ( 0.000000000000000000, 0.000000000000000000, 1.000000000000000000 ) ) ;
#163 = ORIENTED_EDGE ( 'NONE', *, *, #99, .F. ) ;
#164 = AXIS2_PLACEMENT_3D ( 'NONE', #21, #274, #43 ) ;
#165 = CC_DESIGN_APPROVAL ( #8, ( #182 ) ) ;
#166 = DIRECTION ( 'NONE',  ( -0.000000000000000000, -0.000000000000000000, -1.000000000000000000 ) ) ;
#167 = CARTESIAN_POINT ( 'NONE',  ( -5.500000000000000000, 0.000000000000000000, 320.0000000000000000 ) ) ;
#168 = CARTESIAN_POINT ( 'NONE',  ( -5.699999999999999289, 6.980486755139912122E-16, 4.999999999999991118 ) ) ;
#169 = AXIS2_PLACEMENT_3D ( 'NONE', #88, #10, #185 ) ;
#170 = EDGE_CURVE ( 'NONE', #11, #55, #276, .T. ) ;
#171 = CARTESIAN_POINT ( 'NONE',  ( 0.000000000000000000, 0.000000000000000000, 0.000000000000000000 ) ) ;
#172 = AXIS2_PLACEMENT_3D ( 'NONE', #197, #117, #212 ) ;
#173 = DIRECTION ( 'NONE',  ( 1.000000000000000000, 0.000000000000000000, 0.000000000000000000 ) ) ;
#174 = APPROVAL_DATE_TIME ( #150, #67 ) ;
#175 = FACE_OUTER_BOUND ( 'NONE', #35, .T. ) ;
#176 = DIRECTION ( 'NONE',  ( -0.000000000000000000, -0.000000000000000000, -1.000000000000000000 ) ) ;
#177 = AXIS2_PLACEMENT_3D ( 'NONE', #111, #162, #270 ) ;
#178 = CALENDAR_DATE ( 2022, 7, 7 ) ;
#179 = PRODUCT_DEFINITION ( 'NEZNÁMÝ', '', #93, #215 ) ;
#180 = APPROVAL_STATUS ( 'not_yet_approved' ) ;
#181 = EDGE_CURVE ( 'NONE', #82, #105, #103, .T. ) ;
#182 = SECURITY_CLASSIFICATION ( '', '', #48 ) ;
#183 = DIRECTION ( 'NONE',  ( -0.000000000000000000, -0.000000000000000000, -1.000000000000000000 ) ) ;
#184 = ORIENTED_EDGE ( 'NONE', *, *, #99, .T. ) ;
#185 = DIRECTION ( 'NONE',  ( 1.000000000000000000, 0.000000000000000000, 0.000000000000000000 ) ) ;
#186 = AXIS2_PLACEMENT_3D ( 'NONE', #261, #243, #122 ) ;
#187 = APPROVAL_PERSON_ORGANIZATION ( #305, #8, #246 ) ;
#188 = CARTESIAN_POINT ( 'NONE',  ( -5.500000000000000000, 0.000000000000000000, 320.0000000000000000 ) ) ;
#189 = EDGE_LOOP ( 'NONE', ( #107, #269 ) ) ;
#190 = CIRCLE ( 'NONE', #237, 5.699999999999999289 ) ;
#191 = PERSON_AND_ORGANIZATION ( #31, #110 ) ;
#192 = DIRECTION ( 'NONE',  ( -0.000000000000000000, -0.000000000000000000, -1.000000000000000000 ) ) ;
#193 = COORDINATED_UNIVERSAL_TIME_OFFSET ( 1, 0, .AHEAD. ) ;
#194 = CARTESIAN_POINT ( 'NONE',  ( -8.000000000000000000, 0.000000000000000000, 5.000000000000000000 ) ) ;
#195 = VECTOR ( 'NONE', #50, 1000.000000000000000 ) ;
#196 = CC_DESIGN_SECURITY_CLASSIFICATION ( #182, ( #93 ) ) ;
#197 = CARTESIAN_POINT ( 'NONE',  ( 0.000000000000000000, 0.000000000000000000, 320.0000000000000000 ) ) ;
#198 = APPROVAL_DATE_TIME ( #100, #8 ) ;
#199 =( NAMED_UNIT ( * ) SI_UNIT ( $, .STERADIAN. ) SOLID_ANGLE_UNIT ( ) );
#200 = DIRECTION ( 'NONE',  ( 1.000000000000000000, 0.000000000000000000, 0.000000000000000000 ) ) ;
#201 = COORDINATED_UNIVERSAL_TIME_OFFSET ( 1, 0, .AHEAD. ) ;
#202 = ORIENTED_EDGE ( 'NONE', *, *, #275, .F. ) ;
#203 = EDGE_LOOP ( 'NONE', ( #130, #4, #202, #291 ) ) ;
#204 = AXIS2_PLACEMENT_3D ( 'NONE', #62, #253, #161 ) ;
#205 = ORIENTED_EDGE ( 'NONE', *, *, #222, .F. ) ;
#206 = DIRECTION ( 'NONE',  ( 1.000000000000000000, 0.000000000000000000, 0.000000000000000000 ) ) ;
#207 = ORIENTED_EDGE ( 'NONE', *, *, #181, .T. ) ;
#208 = FACE_OUTER_BOUND ( 'NONE', #137, .T. ) ;
#209 = VERTEX_POINT ( 'NONE', #98 ) ;
#210 = ORIENTED_EDGE ( 'NONE', *, *, #84, .F. ) ;
#211 = DATE_TIME_ROLE ( 'creation_date' ) ;
#212 = DIRECTION ( 'NONE',  ( 1.000000000000000000, 0.000000000000000000, -0.000000000000000000 ) ) ;
#213 =( NAMED_UNIT ( * ) PLANE_ANGLE_UNIT ( ) SI_UNIT ( $, .RADIAN. ) );
#214 = DIRECTION ( 'NONE',  ( 1.224646799147353207E-16, 1.000000000000000000, -0.000000000000000000 ) ) ;
#215 = DESIGN_CONTEXT ( 'detailed design', #41, 'design' ) ;
#216 = DIRECTION ( 'NONE',  ( 0.000000000000000000, 0.000000000000000000, 1.000000000000000000 ) ) ;
#217 = CIRCLE ( 'NONE', #223, 5.500000000000000000 ) ;
#218 = DATE_TIME_ROLE ( 'classification_date' ) ;
#219 = EDGE_CURVE ( 'NONE', #209, #82, #244, .T. ) ;
#220 = DIRECTION ( 'NONE',  ( 1.000000000000000000, 0.000000000000000000, 0.000000000000000000 ) ) ;
#221 = DIRECTION ( 'NONE',  ( 1.000000000000000000, 0.000000000000000000, 0.000000000000000000 ) ) ;
#222 = EDGE_CURVE ( 'NONE', #209, #7, #153, .T. ) ;
#223 = AXIS2_PLACEMENT_3D ( 'NONE', #53, #216, #119 ) ;
#224 = ORIENTED_EDGE ( 'NONE', *, *, #84, .T. ) ;
#225 = MANIFOLD_SOLID_BREP ( 'Zaoblit1', #277 ) ;
#226 = APPROVAL_PERSON_ORGANIZATION ( #125, #67, #72 ) ;
#227 = DIRECTION ( 'NONE',  ( -1.000000000000000000, 0.000000000000000000, 0.000000000000000000 ) ) ;
#228 = ORIENTED_EDGE ( 'NONE', *, *, #74, .T. ) ;
#229 = CARTESIAN_POINT ( 'NONE',  ( -8.000000000000000000, 0.000000000000000000, 0.000000000000000000 ) ) ;
#230 = ORIENTED_EDGE ( 'NONE', *, *, #170, .F. ) ;
#231 = EDGE_CURVE ( 'NONE', #3, #11, #114, .T. ) ;
#232 = DIRECTION ( 'NONE',  ( 0.000000000000000000, 0.000000000000000000, 1.000000000000000000 ) ) ;
#233 = CARTESIAN_POINT ( 'NONE',  ( 0.000000000000000000, 0.000000000000000000, 5.199999999999982414 ) ) ;
#234 = APPROVAL_STATUS ( 'not_yet_approved' ) ;
#235 = EDGE_CURVE ( 'NONE', #7, #105, #259, .T. ) ;
#236 = CC_DESIGN_PERSON_AND_ORGANIZATION_ASSIGNMENT ( #242, #278, ( #93 ) ) ;
#237 = AXIS2_PLACEMENT_3D ( 'NONE', #300, #192, #273 ) ;
#238 = CALENDAR_DATE ( 2022, 7, 7 ) ;
#239 = CARTESIAN_POINT ( 'NONE',  ( 0.000000000000000000, 0.000000000000000000, 5.000000000000000000 ) ) ;
#240 = APPROVAL_DATE_TIME ( #46, #23 ) ;
#241 = PLANE ( 'NONE',  #172 ) ;
#242 = PERSON_AND_ORGANIZATION ( #31, #110 ) ;
#243 = DIRECTION ( 'NONE',  ( 0.000000000000000000, 0.000000000000000000, 1.000000000000000000 ) ) ;
#244 = LINE ( 'NONE', #194, #271 ) ;
#245 = CARTESIAN_POINT ( 'NONE',  ( 0.000000000000000000, 0.000000000000000000, 0.000000000000000000 ) ) ;
#246 = APPROVAL_ROLE ( '' ) ;
#247 = AXIS2_PLACEMENT_3D ( 'NONE', #251, #166, #252 ) ;
#248 = ORIENTED_EDGE ( 'NONE', *, *, #108, .T. ) ;
#249 = ORIENTED_EDGE ( 'NONE', *, *, #155, .F. ) ;
#250 = AXIS2_PLACEMENT_3D ( 'NONE', #95, #45, #73 ) ;
#251 = CARTESIAN_POINT ( 'NONE',  ( 0.000000000000000000, 0.000000000000000000, 5.000000000000000000 ) ) ;
#252 = DIRECTION ( 'NONE',  ( -1.000000000000000000, 0.000000000000000000, 0.000000000000000000 ) ) ;
#253 = DIRECTION ( 'NONE',  ( -0.000000000000000000, -0.000000000000000000, -1.000000000000000000 ) ) ;
#254 = DIRECTION ( 'NONE',  ( 1.000000000000000000, 0.000000000000000000, 0.000000000000000000 ) ) ;
#255 = APPROVAL_ROLE ( '' ) ;
#256 = CARTESIAN_POINT ( 'NONE',  ( 5.699999999999999289, 0.000000000000000000, 5.199999999999982414 ) ) ;
#257 = AXIS2_PLACEMENT_3D ( 'NONE', #89, #296, #227 ) ;
#258 = CARTESIAN_POINT ( 'NONE',  ( 0.000000000000000000, 0.000000000000000000, 5.000000000000000000 ) ) ;
#259 = LINE ( 'NONE', #115, #299 ) ;
#260 = MECHANICAL_CONTEXT ( 'NONE', #148, 'mechanical' ) ;
#261 = CARTESIAN_POINT ( 'NONE',  ( 0.000000000000000000, 0.000000000000000000, 0.000000000000000000 ) ) ;
#262 = DIRECTION ( 'NONE',  ( -0.000000000000000000, -0.000000000000000000, -1.000000000000000000 ) ) ;
#263 = ORIENTED_EDGE ( 'NONE', *, *, #265, .T. ) ;
#264 = APPROVAL_PERSON_ORGANIZATION ( #191, #23, #255 ) ;
#265 = EDGE_CURVE ( 'NONE', #109, #129, #77, .T. ) ;
#266 = CYLINDRICAL_SURFACE ( 'NONE', #204, 5.500000000000000000 ) ;
#267 = FACE_OUTER_BOUND ( 'NONE', #33, .T. ) ;
#268 = FACE_OUTER_BOUND ( 'NONE', #63, .T. ) ;
#269 = ORIENTED_EDGE ( 'NONE', *, *, #140, .T. ) ;
#270 = DIRECTION ( 'NONE',  ( 1.000000000000000000, 0.000000000000000000, 0.000000000000000000 ) ) ;
#271 = VECTOR ( 'NONE', #123, 1000.000000000000000 ) ;
#272 = DIRECTION ( 'NONE',  ( 0.000000000000000000, 0.000000000000000000, 1.000000000000000000 ) ) ;
#273 = DIRECTION ( 'NONE',  ( 1.000000000000000000, 0.000000000000000000, 0.000000000000000000 ) ) ;
#274 = DIRECTION ( 'NONE',  ( 0.000000000000000000, 0.000000000000000000, 1.000000000000000000 ) ) ;
#275 = EDGE_CURVE ( 'NONE', #129, #109, #190, .T. ) ;
#276 = LINE ( 'NONE', #143, #195 ) ;
#277 = CLOSED_SHELL ( 'NONE', ( #286, #102, #113, #54, #289, #118, #160, #135, #128 ) ) ;
#278 = PERSON_AND_ORGANIZATION_ROLE ( 'design_supplier' ) ;
#279 = FACE_BOUND ( 'NONE', #134, .T. ) ;
#280 = FACE_OUTER_BOUND ( 'NONE', #58, .T. ) ;
#281 = CALENDAR_DATE ( 2022, 7, 7 ) ;
#282 = PRODUCT_DEFINITION_SHAPE ( 'NONE', 'NONE',  #179 ) ;
#283 = CARTESIAN_POINT ( 'NONE',  ( -5.500000000000000000, 0.000000000000000000, 5.199999999999982414 ) ) ;
#284 = COORDINATED_UNIVERSAL_TIME_OFFSET ( 1, 0, .AHEAD. ) ;
#285 = TOROIDAL_SURFACE ( 'NONE', #164, 5.699999999999999289, 0.2000000000000000111 ) ;
#286 = ADVANCED_FACE ( 'NONE', ( #47 ), #285, .F. ) ;
#287 = ORIENTED_EDGE ( 'NONE', *, *, #235, .F. ) ;
#288 = CIRCLE ( 'NONE', #68, 5.500000000000000000 ) ;
#289 = ADVANCED_FACE ( 'NONE', ( #279, #112 ), #138, .T. ) ;
#290 = CARTESIAN_POINT ( 'NONE',  ( 0.000000000000000000, 0.000000000000000000, 5.199999999999982414 ) ) ;
#291 = ORIENTED_EDGE ( 'NONE', *, *, #156, .F. ) ;
#292 = LINE ( 'NONE', #167, #15 ) ;
#293 = ORIENTED_EDGE ( 'NONE', *, *, #156, .T. ) ;
#294 = CC_DESIGN_PERSON_AND_ORGANIZATION_ASSIGNMENT ( #49, #146, ( #179 ) ) ;
#295 = LOCAL_TIME ( 11, 48, 44.00000000000000000, #18 ) ;
#296 = DIRECTION ( 'NONE',  ( -0.000000000000000000, -0.000000000000000000, -1.000000000000000000 ) ) ;
#297 = CARTESIAN_POINT ( 'NONE',  ( 8.000000000000000000, 9.797174393178825657E-16, 5.000000000000000000 ) ) ;
#298 = PERSON_AND_ORGANIZATION ( #31, #110 ) ;
#299 = VECTOR ( 'NONE', #176, 1000.000000000000000 ) ;
#300 = CARTESIAN_POINT ( 'NONE',  ( 0.000000000000000000, 0.000000000000000000, 5.000000000000000000 ) ) ;
#301 = APPROVAL_STATUS ( 'not_yet_approved' ) ;
#302 = CARTESIAN_POINT ( 'NONE',  ( 5.699999999999999289, 0.000000000000000000, 4.999999999999991118 ) ) ;
#303 = DIRECTION ( 'NONE',  ( 0.000000000000000000, 0.000000000000000000, 1.000000000000000000 ) ) ;
#304 = CC_DESIGN_APPROVAL ( #23, ( #93 ) ) ;
#305 = PERSON_AND_ORGANIZATION ( #31, #110 ) ;
#306 = PERSON_AND_ORGANIZATION_ROLE ( 'design_owner' ) ;
#307 = CARTESIAN_POINT ( 'NONE',  ( 0.000000000000000000, 0.000000000000000000, 320.0000000000000000 ) ) ;
ENDSEC;
END-ISO-10303-21;
