ISO-10303-21;
HEADER;
FILE_DESCRIPTION (( 'STEP AP203' ),
    '1' );
FILE_NAME ('27ba.STEP',
    '2022-07-07T10:25:52',
    ( '' ),
    ( '' ),
    'SwSTEP 2.0',
    'SolidWorks 2019',
    '' );
FILE_SCHEMA (( 'CONFIG_CONTROL_DESIGN' ));
ENDSEC;

DATA;
#1 = PRODUCT_DEFINITION ( 'NEZNÁMÝ', '', #22, #293 ) ;
#2 = CALENDAR_DATE ( 2022, 7, 7 ) ;
#3 = EDGE_LOOP ( 'NONE', ( #241, #31, #192, #220 ) ) ;
#4 = PERSON_AND_ORGANIZATION ( #305, #206 ) ;
#5 = CARTESIAN_POINT ( 'NONE',  ( 0.000000000000000000, 0.000000000000000000, 318.0000000000000000 ) ) ;
#6 = PRODUCT ( '27ba', '27ba', '', ( #118 ) ) ;
#7 = ORIENTED_EDGE ( 'NONE', *, *, #172, .T. ) ;
#8 = DIRECTION ( 'NONE',  ( -0.000000000000000000, -0.000000000000000000, -1.000000000000000000 ) ) ;
#9 = CIRCLE ( 'NONE', #50, 0.2000000000000000944 ) ;
#10 = DIRECTION ( 'NONE',  ( 0.000000000000000000, 0.000000000000000000, 1.000000000000000000 ) ) ;
#11 = VERTEX_POINT ( 'NONE', #248 ) ;
#12 = CYLINDRICAL_SURFACE ( 'NONE', #306, 2.000000000000000000 ) ;
#13 = CARTESIAN_POINT ( 'NONE',  ( 0.000000000000000000, 0.000000000000000000, 3.000000000000000000 ) ) ;
#14 = CARTESIAN_POINT ( 'NONE',  ( 2.200000000000000178, 0.000000000000000000, 2.999999999999990674 ) ) ;
#15 = DIRECTION ( 'NONE',  ( 1.000000000000000000, 0.000000000000000000, -0.000000000000000000 ) ) ;
#16 = CARTESIAN_POINT ( 'NONE',  ( 4.000000000000000000, 4.898587196589412829E-16, 3.000000000000000000 ) ) ;
#17 = VECTOR ( 'NONE', #299, 1000.000000000000000 ) ;
#18 =( LENGTH_UNIT ( ) NAMED_UNIT ( * ) SI_UNIT ( .MILLI., .METRE. ) );
#19 = EDGE_CURVE ( 'NONE', #11, #24, #70, .T. ) ;
#20 = CIRCLE ( 'NONE', #193, 2.000000000000000000 ) ;
#21 = DATE_AND_TIME ( #44, #182 ) ;
#22 = PRODUCT_DEFINITION_FORMATION_WITH_SPECIFIED_SOURCE ( 'LIBOVOLNÝ', '', #6, .NOT_KNOWN. ) ;
#23 = DATE_AND_TIME ( #234, #113 ) ;
#24 = VERTEX_POINT ( 'NONE', #246 ) ;
#25 = CC_DESIGN_PERSON_AND_ORGANIZATION_ASSIGNMENT ( #161, #146, ( #6 ) ) ;
#26 = APPROVAL_DATE_TIME ( #239, #153 ) ;
#27 = ORIENTED_EDGE ( 'NONE', *, *, #145, .T. ) ;
#28 = AXIS2_PLACEMENT_3D ( 'NONE', #243, #194, #168 ) ;
#29 = AXIS2_PLACEMENT_3D ( 'NONE', #62, #105, #301 ) ;
#30 = DIRECTION ( 'NONE',  ( 1.000000000000000000, 0.000000000000000000, 0.000000000000000000 ) ) ;
#31 = ORIENTED_EDGE ( 'NONE', *, *, #172, .F. ) ;
#32 = DIRECTION ( 'NONE',  ( 1.000000000000000000, 0.000000000000000000, 0.000000000000000000 ) ) ;
#33 = CC_DESIGN_DATE_AND_TIME_ASSIGNMENT ( #94, #69, ( #1 ) ) ;
#34 = CC_DESIGN_APPROVAL ( #153, ( #1 ) ) ;
#35 = CARTESIAN_POINT ( 'NONE',  ( 2.000000000000000000, 2.449293598294706414E-16, 318.0000000000000000 ) ) ;
#36 = FACE_OUTER_BOUND ( 'NONE', #170, .T. ) ;
#37 = CARTESIAN_POINT ( 'NONE',  ( 0.000000000000000000, 0.000000000000000000, 318.0000000000000000 ) ) ;
#38 = AXIS2_PLACEMENT_3D ( 'NONE', #282, #258, #141 ) ;
#39 = SECURITY_CLASSIFICATION ( '', '', #46 ) ;
#40 = CARTESIAN_POINT ( 'NONE',  ( -2.200000000000000178, 2.694222958124177006E-16, 3.199999999999980638 ) ) ;
#41 = CARTESIAN_POINT ( 'NONE',  ( 0.000000000000000000, 0.000000000000000000, 3.000000000000000000 ) ) ;
#42 = PERSON_AND_ORGANIZATION ( #305, #206 ) ;
#43 = EDGE_CURVE ( 'NONE', #82, #304, #230, .T. ) ;
#44 = CALENDAR_DATE ( 2022, 7, 7 ) ;
#45 = ORIENTED_EDGE ( 'NONE', *, *, #19, .T. ) ;
#46 = SECURITY_CLASSIFICATION_LEVEL ( 'unclassified' ) ;
#47 = CC_DESIGN_DATE_AND_TIME_ASSIGNMENT ( #23, #95, ( #39 ) ) ;
#48 = EDGE_CURVE ( 'NONE', #304, #266, #244, .T. ) ;
#49 = DIRECTION ( 'NONE',  ( 0.000000000000000000, 0.000000000000000000, 1.000000000000000000 ) ) ;
#50 = AXIS2_PLACEMENT_3D ( 'NONE', #267, #290, #76 ) ;
#51 = ORIENTED_EDGE ( 'NONE', *, *, #75, .F. ) ;
#52 = EDGE_CURVE ( 'NONE', #264, #196, #9, .T. ) ;
#53 = FACE_OUTER_BOUND ( 'NONE', #121, .T. ) ;
#54 = ORIENTED_EDGE ( 'NONE', *, *, #75, .T. ) ;
#55 = ADVANCED_FACE ( 'NONE', ( #53 ), #186, .F. ) ;
#56 = CIRCLE ( 'NONE', #83, 4.000000000000000000 ) ;
#57 = ORIENTED_EDGE ( 'NONE', *, *, #52, .F. ) ;
#58 = CARTESIAN_POINT ( 'NONE',  ( 0.000000000000000000, 0.000000000000000000, 3.199999999999980638 ) ) ;
#59 = LINE ( 'NONE', #278, #17 ) ;
#60 = APPLICATION_CONTEXT ( 'configuration controlled 3d designs of mechanical parts and assemblies' ) ;
#61 = DIRECTION ( 'NONE',  ( 0.000000000000000000, 0.000000000000000000, 1.000000000000000000 ) ) ;
#62 = CARTESIAN_POINT ( 'NONE',  ( 0.000000000000000000, 0.000000000000000000, 318.0000000000000000 ) ) ;
#63 = CARTESIAN_POINT ( 'NONE',  ( 0.000000000000000000, 0.000000000000000000, 3.000000000000000000 ) ) ;
#64 = EDGE_CURVE ( 'NONE', #82, #264, #154, .T. ) ;
#65 = PERSON_AND_ORGANIZATION_ROLE ( 'creator' ) ;
#66 = ORIENTED_EDGE ( 'NONE', *, *, #104, .F. ) ;
#67 = PERSON_AND_ORGANIZATION ( #305, #206 ) ;
#68 = ORIENTED_EDGE ( 'NONE', *, *, #19, .F. ) ;
#69 = DATE_TIME_ROLE ( 'creation_date' ) ;
#70 = CIRCLE ( 'NONE', #126, 4.000000000000000000 ) ;
#71 = PERSON_AND_ORGANIZATION ( #305, #206 ) ;
#72 = CALENDAR_DATE ( 2022, 7, 7 ) ;
#73 = PRODUCT_DEFINITION_SHAPE ( 'NONE', 'NONE',  #1 ) ;
#74 = DIRECTION ( 'NONE',  ( -0.000000000000000000, -0.000000000000000000, -1.000000000000000000 ) ) ;
#75 = EDGE_CURVE ( 'NONE', #24, #11, #250, .T. ) ;
#76 = DIRECTION ( 'NONE',  ( 0.000000000000000000, 0.000000000000000000, -1.000000000000000000 ) ) ;
#77 = CIRCLE ( 'NONE', #222, 4.000000000000000000 ) ;
#78 = APPROVAL_PERSON_ORGANIZATION ( #67, #153, #163 ) ;
#79 = LOCAL_TIME ( 12, 25, 52.00000000000000000, #287 ) ;
#80 = CARTESIAN_POINT ( 'NONE',  ( -2.000000000000000000, 0.000000000000000000, 318.0000000000000000 ) ) ;
#81 = DIRECTION ( 'NONE',  ( 1.000000000000000000, 0.000000000000000000, 0.000000000000000000 ) ) ;
#82 = VERTEX_POINT ( 'NONE', #151 ) ;
#83 = AXIS2_PLACEMENT_3D ( 'NONE', #13, #130, #221 ) ;
#84 = FACE_OUTER_BOUND ( 'NONE', #286, .T. ) ;
#85 = CARTESIAN_POINT ( 'NONE',  ( 0.000000000000000000, 0.000000000000000000, 0.000000000000000000 ) ) ;
#86 = CYLINDRICAL_SURFACE ( 'NONE', #262, 4.000000000000000000 ) ;
#87 = CC_DESIGN_PERSON_AND_ORGANIZATION_ASSIGNMENT ( #71, #205, ( #1 ) ) ;
#88 = DIRECTION ( 'NONE',  ( 1.224646799147353207E-16, 1.000000000000000000, -0.000000000000000000 ) ) ;
#89 = CIRCLE ( 'NONE', #140, 0.2000000000000000944 ) ;
#90 = DIRECTION ( 'NONE',  ( -0.000000000000000000, -0.000000000000000000, -1.000000000000000000 ) ) ;
#91 = CALENDAR_DATE ( 2022, 7, 7 ) ;
#92 = ORIENTED_EDGE ( 'NONE', *, *, #98, .T. ) ;
#93 = COORDINATED_UNIVERSAL_TIME_OFFSET ( 1, 0, .AHEAD. ) ;
#94 = DATE_AND_TIME ( #2, #232 ) ;
#95 = DATE_TIME_ROLE ( 'classification_date' ) ;
#96 = ORIENTED_EDGE ( 'NONE', *, *, #275, .T. ) ;
#97 = CYLINDRICAL_SURFACE ( 'NONE', #100, 2.000000000000000000 ) ;
#98 = EDGE_CURVE ( 'NONE', #162, #178, #77, .T. ) ;
#99 = ORIENTED_EDGE ( 'NONE', *, *, #160, .T. ) ;
#100 = AXIS2_PLACEMENT_3D ( 'NONE', #5, #190, #270 ) ;
#101 = CARTESIAN_POINT ( 'NONE',  ( 0.000000000000000000, 0.000000000000000000, 3.199999999999980638 ) ) ;
#102 = DIRECTION ( 'NONE',  ( 1.000000000000000000, 0.000000000000000000, 0.000000000000000000 ) ) ;
#103 = ORIENTED_EDGE ( 'NONE', *, *, #64, .T. ) ;
#104 = EDGE_CURVE ( 'NONE', #264, #266, #20, .T. ) ;
#105 = DIRECTION ( 'NONE',  ( 0.000000000000000000, 0.000000000000000000, 1.000000000000000000 ) ) ;
#106 = LINE ( 'NONE', #16, #268 ) ;
#107 = CC_DESIGN_SECURITY_CLASSIFICATION ( #39, ( #22 ) ) ;
#108 = FACE_BOUND ( 'NONE', #288, .T. ) ;
#109 = APPLICATION_CONTEXT ( 'configuration controlled 3d designs of mechanical parts and assemblies' ) ;
#110 = DIRECTION ( 'NONE',  ( 0.000000000000000000, 0.000000000000000000, 1.000000000000000000 ) ) ;
#111 = FACE_OUTER_BOUND ( 'NONE', #216, .T. ) ;
#112 = AXIS2_PLACEMENT_3D ( 'NONE', #226, #158, #134 ) ;
#113 = LOCAL_TIME ( 12, 25, 52.00000000000000000, #237 ) ;
#114 = ADVANCED_FACE ( 'NONE', ( #212 ), #97, .T. ) ;
#115 = ORIENTED_EDGE ( 'NONE', *, *, #255, .T. ) ;
#116 = AXIS2_PLACEMENT_3D ( 'NONE', #101, #217, #32 ) ;
#117 = EDGE_LOOP ( 'NONE', ( #209, #207, #283, #57 ) ) ;
#118 = MECHANICAL_CONTEXT ( 'NONE', #60, 'mechanical' ) ;
#119 = CC_DESIGN_PERSON_AND_ORGANIZATION_ASSIGNMENT ( #4, #144, ( #39 ) ) ;
#120 = PERSON_AND_ORGANIZATION ( #305, #206 ) ;
#121 = EDGE_LOOP ( 'NONE', ( #245, #66, #142, #165 ) ) ;
#122 = APPROVAL_DATE_TIME ( #263, #137 ) ;
#123 = EDGE_LOOP ( 'NONE', ( #96, #92 ) ) ;
#124 = ADVANCED_BREP_SHAPE_REPRESENTATION ( '27ba', ( #139, #38 ), #225 ) ;
#125 = CARTESIAN_POINT ( 'NONE',  ( 0.000000000000000000, 0.000000000000000000, 318.0000000000000000 ) ) ;
#126 = AXIS2_PLACEMENT_3D ( 'NONE', #291, #49, #294 ) ;
#127 = CARTESIAN_POINT ( 'NONE',  ( 0.000000000000000000, 0.000000000000000000, 3.000000000000000000 ) ) ;
#128 = CIRCLE ( 'NONE', #188, 2.000000000000000000 ) ;
#129 = CARTESIAN_POINT ( 'NONE',  ( 0.000000000000000000, 0.000000000000000000, 3.199999999999980638 ) ) ;
#130 = DIRECTION ( 'NONE',  ( 0.000000000000000000, 0.000000000000000000, 1.000000000000000000 ) ) ;
#131 = PRODUCT_RELATED_PRODUCT_CATEGORY ( 'detail', '', ( #6 ) ) ;
#132 = DIRECTION ( 'NONE',  ( -1.000000000000000000, 1.224646799147353207E-16, 0.000000000000000000 ) ) ;
#133 = CIRCLE ( 'NONE', #247, 2.200000000000000178 ) ;
#134 = DIRECTION ( 'NONE',  ( 1.000000000000000000, 0.000000000000000000, 0.000000000000000000 ) ) ;
#135 = PLANE ( 'NONE',  #29 ) ;
#136 = CARTESIAN_POINT ( 'NONE',  ( -2.200000000000000178, 2.694222958124177006E-16, 2.999999999999990674 ) ) ;
#137 = APPROVAL ( #284, 'NEURÈENÝ' ) ;
#138 = COORDINATED_UNIVERSAL_TIME_OFFSET ( 1, 0, .AHEAD. ) ;
#139 = MANIFOLD_SOLID_BREP ( 'Zaoblit1', #202 ) ;
#140 = AXIS2_PLACEMENT_3D ( 'NONE', #40, #88, #132 ) ;
#141 = DIRECTION ( 'NONE',  ( 1.000000000000000000, 0.000000000000000000, 0.000000000000000000 ) ) ;
#142 = ORIENTED_EDGE ( 'NONE', *, *, #52, .T. ) ;
#143 = APPROVAL_STATUS ( 'not_yet_approved' ) ;
#144 = PERSON_AND_ORGANIZATION_ROLE ( 'classification_officer' ) ;
#145 = EDGE_CURVE ( 'NONE', #196, #181, #236, .T. ) ;
#146 = PERSON_AND_ORGANIZATION_ROLE ( 'design_owner' ) ;
#147 = EDGE_LOOP ( 'NONE', ( #68, #51 ) ) ;
#148 = ORIENTED_EDGE ( 'NONE', *, *, #43, .T. ) ;
#149 = AXIS2_PLACEMENT_3D ( 'NONE', #37, #300, #252 ) ;
#150 = ORIENTED_EDGE ( 'NONE', *, *, #219, .F. ) ;
#151 = CARTESIAN_POINT ( 'NONE',  ( 2.000000000000000000, 2.449293598294706414E-16, 318.0000000000000000 ) ) ;
#152 = ORIENTED_EDGE ( 'NONE', *, *, #104, .T. ) ;
#153 = APPROVAL ( #307, 'NEURÈENÝ' ) ;
#154 = LINE ( 'NONE', #35, #295 ) ;
#155 = CARTESIAN_POINT ( 'NONE',  ( 2.000000000000000000, 2.449293598294706414E-16, 3.199999999999980638 ) ) ;
#156 = PLANE ( 'NONE',  #198 ) ;
#157 = VECTOR ( 'NONE', #272, 1000.000000000000000 ) ;
#158 = DIRECTION ( 'NONE',  ( 0.000000000000000000, 0.000000000000000000, 1.000000000000000000 ) ) ;
#159 = DIRECTION ( 'NONE',  ( 0.000000000000000000, 0.000000000000000000, 1.000000000000000000 ) ) ;
#160 = EDGE_CURVE ( 'NONE', #162, #24, #106, .T. ) ;
#161 = PERSON_AND_ORGANIZATION ( #305, #206 ) ;
#162 = VERTEX_POINT ( 'NONE', #229 ) ;
#163 = APPROVAL_ROLE ( '' ) ;
#164 = PERSON_AND_ORGANIZATION ( #305, #206 ) ;
#165 = ORIENTED_EDGE ( 'NONE', *, *, #255, .F. ) ;
#166 = ORIENTED_EDGE ( 'NONE', *, *, #43, .F. ) ;
#167 = ADVANCED_FACE ( 'NONE', ( #276 ), #201, .F. ) ;
#168 = DIRECTION ( 'NONE',  ( 1.000000000000000000, 0.000000000000000000, 0.000000000000000000 ) ) ;
#169 = CC_DESIGN_PERSON_AND_ORGANIZATION_ASSIGNMENT ( #42, #260, ( #22 ) ) ;
#170 = EDGE_LOOP ( 'NONE', ( #166, #103, #152, #211 ) ) ;
#171 = DIRECTION ( 'NONE',  ( 0.000000000000000000, 0.000000000000000000, 1.000000000000000000 ) ) ;
#172 = EDGE_CURVE ( 'NONE', #304, #82, #273, .T. ) ;
#173 = CARTESIAN_POINT ( 'NONE',  ( 0.000000000000000000, 0.000000000000000000, 318.0000000000000000 ) ) ;
#174 = FACE_OUTER_BOUND ( 'NONE', #117, .T. ) ;
#175 = DIRECTION ( 'NONE',  ( -1.000000000000000000, 0.000000000000000000, 0.000000000000000000 ) ) ;
#176 = CARTESIAN_POINT ( 'NONE',  ( 0.000000000000000000, 0.000000000000000000, 3.000000000000000000 ) ) ;
#177 = DIRECTION ( 'NONE',  ( -1.000000000000000000, 0.000000000000000000, 0.000000000000000000 ) ) ;
#178 = VERTEX_POINT ( 'NONE', #199 ) ;
#179 = ADVANCED_FACE ( 'NONE', ( #174 ), #257, .F. ) ;
#180 = CARTESIAN_POINT ( 'NONE',  ( -2.000000000000000000, 0.000000000000000000, 318.0000000000000000 ) ) ;
#181 = VERTEX_POINT ( 'NONE', #136 ) ;
#182 = LOCAL_TIME ( 12, 25, 52.00000000000000000, #138 ) ;
#183 = ORIENTED_EDGE ( 'NONE', *, *, #275, .F. ) ;
#184 = PERSON_AND_ORGANIZATION ( #305, #206 ) ;
#185 = ORIENTED_EDGE ( 'NONE', *, *, #160, .F. ) ;
#186 = TOROIDAL_SURFACE ( 'NONE', #116, 2.200000000000000178, 0.2000000000000000111 ) ;
#187 =( NAMED_UNIT ( * ) PLANE_ANGLE_UNIT ( ) SI_UNIT ( $, .RADIAN. ) );
#188 = AXIS2_PLACEMENT_3D ( 'NONE', #58, #159, #302 ) ;
#189 = APPROVAL_PERSON_ORGANIZATION ( #184, #137, #261 ) ;
#190 = DIRECTION ( 'NONE',  ( -0.000000000000000000, -0.000000000000000000, -1.000000000000000000 ) ) ;
#191 = UNCERTAINTY_MEASURE_WITH_UNIT (LENGTH_MEASURE( 1.000000000000000082E-05 ), #18, 'distance_accuracy_value', 'NONE');
#192 = ORIENTED_EDGE ( 'NONE', *, *, #48, .T. ) ;
#193 = AXIS2_PLACEMENT_3D ( 'NONE', #129, #195, #292 ) ;
#194 = DIRECTION ( 'NONE',  ( 0.000000000000000000, 0.000000000000000000, 1.000000000000000000 ) ) ;
#195 = DIRECTION ( 'NONE',  ( 0.000000000000000000, 0.000000000000000000, 1.000000000000000000 ) ) ;
#196 = VERTEX_POINT ( 'NONE', #14 ) ;
#197 = DIRECTION ( 'NONE',  ( -0.000000000000000000, -0.000000000000000000, -1.000000000000000000 ) ) ;
#198 = AXIS2_PLACEMENT_3D ( 'NONE', #204, #110, #200 ) ;
#199 = CARTESIAN_POINT ( 'NONE',  ( -4.000000000000000000, 0.000000000000000000, 3.000000000000000000 ) ) ;
#200 = DIRECTION ( 'NONE',  ( 1.000000000000000000, 0.000000000000000000, -0.000000000000000000 ) ) ;
#201 = PLANE ( 'NONE',  #218 ) ;
#202 = CLOSED_SHELL ( 'NONE', ( #179, #297, #265, #224, #253, #167, #114, #242, #55 ) ) ;
#203 = AXIS2_PLACEMENT_3D ( 'NONE', #289, #74, #30 ) ;
#204 = CARTESIAN_POINT ( 'NONE',  ( 0.000000000000000000, 0.000000000000000000, 3.000000000000000000 ) ) ;
#205 = PERSON_AND_ORGANIZATION_ROLE ( 'creator' ) ;
#206 = ORGANIZATION ( 'NEURÈENÝ', 'NEURÈENÝ', '' ) ;
#207 = ORIENTED_EDGE ( 'NONE', *, *, #215, .T. ) ;
#208 = APPROVAL_PERSON_ORGANIZATION ( #120, #285, #235 ) ;
#209 = ORIENTED_EDGE ( 'NONE', *, *, #259, .F. ) ;
#210 =( NAMED_UNIT ( * ) SI_UNIT ( $, .STERADIAN. ) SOLID_ANGLE_UNIT ( ) );
#211 = ORIENTED_EDGE ( 'NONE', *, *, #48, .F. ) ;
#212 = FACE_OUTER_BOUND ( 'NONE', #3, .T. ) ;
#213 = CC_DESIGN_APPROVAL ( #285, ( #22 ) ) ;
#214 = ORIENTED_EDGE ( 'NONE', *, *, #98, .F. ) ;
#215 = EDGE_CURVE ( 'NONE', #266, #181, #89, .T. ) ;
#216 = EDGE_LOOP ( 'NONE', ( #185, #183, #281, #45 ) ) ;
#217 = DIRECTION ( 'NONE',  ( 0.000000000000000000, 0.000000000000000000, 1.000000000000000000 ) ) ;
#218 = AXIS2_PLACEMENT_3D ( 'NONE', #85, #61, #15 ) ;
#219 = EDGE_CURVE ( 'NONE', #178, #11, #59, .T. ) ;
#220 = ORIENTED_EDGE ( 'NONE', *, *, #259, .T. ) ;
#221 = DIRECTION ( 'NONE',  ( 1.000000000000000000, 0.000000000000000000, 0.000000000000000000 ) ) ;
#222 = AXIS2_PLACEMENT_3D ( 'NONE', #127, #10, #102 ) ;
#223 = DIRECTION ( 'NONE',  ( -0.000000000000000000, -0.000000000000000000, -1.000000000000000000 ) ) ;
#224 = ADVANCED_FACE ( 'NONE', ( #111 ), #86, .T. ) ;
#225 =( GEOMETRIC_REPRESENTATION_CONTEXT ( 3 ) GLOBAL_UNCERTAINTY_ASSIGNED_CONTEXT ( ( #191 ) ) GLOBAL_UNIT_ASSIGNED_CONTEXT ( ( #18, #187, #210 ) ) REPRESENTATION_CONTEXT ( 'NONE', 'WORKASPACE' ) );
#226 = CARTESIAN_POINT ( 'NONE',  ( 0.000000000000000000, 0.000000000000000000, 3.199999999999980638 ) ) ;
#227 = FACE_OUTER_BOUND ( 'NONE', #123, .T. ) ;
#228 = CC_DESIGN_PERSON_AND_ORGANIZATION_ASSIGNMENT ( #164, #65, ( #22 ) ) ;
#229 = CARTESIAN_POINT ( 'NONE',  ( 4.000000000000000000, 4.898587196589412829E-16, 3.000000000000000000 ) ) ;
#230 = CIRCLE ( 'NONE', #271, 2.000000000000000000 ) ;
#231 = AXIS2_PLACEMENT_3D ( 'NONE', #41, #90, #177 ) ;
#232 = LOCAL_TIME ( 12, 25, 52.00000000000000000, #303 ) ;
#233 = APPLICATION_PROTOCOL_DEFINITION ( 'international standard', 'config_control_design', 1994, #60 ) ;
#234 = CALENDAR_DATE ( 2022, 7, 7 ) ;
#235 = APPROVAL_ROLE ( '' ) ;
#236 = CIRCLE ( 'NONE', #203, 2.200000000000000178 ) ;
#237 = COORDINATED_UNIVERSAL_TIME_OFFSET ( 1, 0, .AHEAD. ) ;
#238 = LOCAL_TIME ( 12, 25, 52.00000000000000000, #93 ) ;
#239 = DATE_AND_TIME ( #91, #238 ) ;
#240 = SHAPE_DEFINITION_REPRESENTATION ( #73, #124 ) ;
#241 = ORIENTED_EDGE ( 'NONE', *, *, #64, .F. ) ;
#242 = ADVANCED_FACE ( 'NONE', ( #251 ), #135, .T. ) ;
#243 = CARTESIAN_POINT ( 'NONE',  ( 0.000000000000000000, 0.000000000000000000, 0.000000000000000000 ) ) ;
#244 = LINE ( 'NONE', #80, #157 ) ;
#245 = ORIENTED_EDGE ( 'NONE', *, *, #215, .F. ) ;
#246 = CARTESIAN_POINT ( 'NONE',  ( 4.000000000000000000, 4.898587196589412829E-16, 0.000000000000000000 ) ) ;
#247 = AXIS2_PLACEMENT_3D ( 'NONE', #176, #296, #277 ) ;
#248 = CARTESIAN_POINT ( 'NONE',  ( -4.000000000000000000, 0.000000000000000000, 0.000000000000000000 ) ) ;
#249 = DIRECTION ( 'NONE',  ( -0.000000000000000000, -0.000000000000000000, -1.000000000000000000 ) ) ;
#250 = CIRCLE ( 'NONE', #28, 4.000000000000000000 ) ;
#251 = FACE_OUTER_BOUND ( 'NONE', #269, .T. ) ;
#252 = DIRECTION ( 'NONE',  ( 1.000000000000000000, 0.000000000000000000, 0.000000000000000000 ) ) ;
#253 = ADVANCED_FACE ( 'NONE', ( #108, #227 ), #156, .T. ) ;
#254 = CYLINDRICAL_SURFACE ( 'NONE', #231, 4.000000000000000000 ) ;
#255 = EDGE_CURVE ( 'NONE', #181, #196, #133, .T. ) ;
#256 = CARTESIAN_POINT ( 'NONE',  ( -2.000000000000000000, 0.000000000000000000, 3.199999999999980638 ) ) ;
#257 = TOROIDAL_SURFACE ( 'NONE', #112, 2.200000000000000178, 0.2000000000000000111 ) ;
#258 = DIRECTION ( 'NONE',  ( 0.000000000000000000, 0.000000000000000000, 1.000000000000000000 ) ) ;
#259 = EDGE_CURVE ( 'NONE', #266, #264, #128, .T. ) ;
#260 = PERSON_AND_ORGANIZATION_ROLE ( 'design_supplier' ) ;
#261 = APPROVAL_ROLE ( '' ) ;
#262 = AXIS2_PLACEMENT_3D ( 'NONE', #63, #249, #175 ) ;
#263 = DATE_AND_TIME ( #72, #79 ) ;
#264 = VERTEX_POINT ( 'NONE', #155 ) ;
#265 = ADVANCED_FACE ( 'NONE', ( #84 ), #254, .T. ) ;
#266 = VERTEX_POINT ( 'NONE', #256 ) ;
#267 = CARTESIAN_POINT ( 'NONE',  ( 2.200000000000000178, 0.000000000000000000, 3.199999999999980638 ) ) ;
#268 = VECTOR ( 'NONE', #197, 1000.000000000000000 ) ;
#269 = EDGE_LOOP ( 'NONE', ( #7, #148 ) ) ;
#270 = DIRECTION ( 'NONE',  ( -1.000000000000000000, 0.000000000000000000, 0.000000000000000000 ) ) ;
#271 = AXIS2_PLACEMENT_3D ( 'NONE', #125, #171, #81 ) ;
#272 = DIRECTION ( 'NONE',  ( -0.000000000000000000, -0.000000000000000000, -1.000000000000000000 ) ) ;
#273 = CIRCLE ( 'NONE', #149, 2.000000000000000000 ) ;
#274 = DIRECTION ( 'NONE',  ( -1.000000000000000000, 0.000000000000000000, 0.000000000000000000 ) ) ;
#275 = EDGE_CURVE ( 'NONE', #178, #162, #56, .T. ) ;
#276 = FACE_OUTER_BOUND ( 'NONE', #147, .T. ) ;
#277 = DIRECTION ( 'NONE',  ( 1.000000000000000000, 0.000000000000000000, 0.000000000000000000 ) ) ;
#278 = CARTESIAN_POINT ( 'NONE',  ( -4.000000000000000000, 0.000000000000000000, 3.000000000000000000 ) ) ;
#279 = APPROVAL_DATE_TIME ( #21, #285 ) ;
#280 = APPLICATION_PROTOCOL_DEFINITION ( 'international standard', 'config_control_design', 1994, #109 ) ;
#281 = ORIENTED_EDGE ( 'NONE', *, *, #219, .T. ) ;
#282 = CARTESIAN_POINT ( 'NONE',  ( 0.000000000000000000, 0.000000000000000000, 0.000000000000000000 ) ) ;
#283 = ORIENTED_EDGE ( 'NONE', *, *, #145, .F. ) ;
#284 = APPROVAL_STATUS ( 'not_yet_approved' ) ;
#285 = APPROVAL ( #143, 'NEURÈENÝ' ) ;
#286 = EDGE_LOOP ( 'NONE', ( #214, #99, #54, #150 ) ) ;
#287 = COORDINATED_UNIVERSAL_TIME_OFFSET ( 1, 0, .AHEAD. ) ;
#288 = EDGE_LOOP ( 'NONE', ( #27, #115 ) ) ;
#289 = CARTESIAN_POINT ( 'NONE',  ( 0.000000000000000000, 0.000000000000000000, 3.000000000000000000 ) ) ;
#290 = DIRECTION ( 'NONE',  ( 0.000000000000000000, -1.000000000000000000, 0.000000000000000000 ) ) ;
#291 = CARTESIAN_POINT ( 'NONE',  ( 0.000000000000000000, 0.000000000000000000, 0.000000000000000000 ) ) ;
#292 = DIRECTION ( 'NONE',  ( 1.000000000000000000, 0.000000000000000000, 0.000000000000000000 ) ) ;
#293 = DESIGN_CONTEXT ( 'detailed design', #109, 'design' ) ;
#294 = DIRECTION ( 'NONE',  ( 1.000000000000000000, 0.000000000000000000, 0.000000000000000000 ) ) ;
#295 = VECTOR ( 'NONE', #8, 1000.000000000000000 ) ;
#296 = DIRECTION ( 'NONE',  ( -0.000000000000000000, -0.000000000000000000, -1.000000000000000000 ) ) ;
#297 = ADVANCED_FACE ( 'NONE', ( #36 ), #12, .T. ) ;
#298 = CC_DESIGN_APPROVAL ( #137, ( #39 ) ) ;
#299 = DIRECTION ( 'NONE',  ( -0.000000000000000000, -0.000000000000000000, -1.000000000000000000 ) ) ;
#300 = DIRECTION ( 'NONE',  ( 0.000000000000000000, 0.000000000000000000, 1.000000000000000000 ) ) ;
#301 = DIRECTION ( 'NONE',  ( 1.000000000000000000, 0.000000000000000000, -0.000000000000000000 ) ) ;
#302 = DIRECTION ( 'NONE',  ( 1.000000000000000000, 0.000000000000000000, 0.000000000000000000 ) ) ;
#303 = COORDINATED_UNIVERSAL_TIME_OFFSET ( 1, 0, .AHEAD. ) ;
#304 = VERTEX_POINT ( 'NONE', #180 ) ;
#305 = PERSON ( 'NEURÈENÝ', 'NEURÈENÝ', 'NEURÈENÝ', ('NEURÈENÝ'), ('NEURÈENÝ'), ('NEURÈENÝ') ) ;
#306 = AXIS2_PLACEMENT_3D ( 'NONE', #173, #223, #274 ) ;
#307 = APPROVAL_STATUS ( 'not_yet_approved' ) ;
ENDSEC;
END-ISO-10303-21;
