ISO-10303-21;
HEADER;
FILE_DESCRIPTION (( 'STEP AP203' ),
    '1' );
FILE_NAME ('1791.STEP',
    '2022-07-07T09:35:02',
    ( '' ),
    ( '' ),
    'SwSTEP 2.0',
    'SolidWorks 2019',
    '' );
FILE_SCHEMA (( 'CONFIG_CONTROL_DESIGN' ));
ENDSEC;

DATA;
#1 = CC_DESIGN_PERSON_AND_ORGANIZATION_ASSIGNMENT ( #18, #207, ( #182 ) ) ;
#2 = ORIENTED_EDGE ( 'NONE', *, *, #280, .F. ) ;
#3 = ORIENTED_EDGE ( 'NONE', *, *, #215, .T. ) ;
#4 = EDGE_LOOP ( 'NONE', ( #227, #109, #50, #106 ) ) ;
#5 = DIRECTION ( 'NONE',  ( -1.000000000000000000, 0.000000000000000000, 0.000000000000000000 ) ) ;
#6 = AXIS2_PLACEMENT_3D ( 'NONE', #61, #204, #127 ) ;
#7 = DIRECTION ( 'NONE',  ( 1.000000000000000000, 0.000000000000000000, 0.000000000000000000 ) ) ;
#8 = CARTESIAN_POINT ( 'NONE',  ( 10.00000000000000000, 1.224646799147353256E-15, 108.0000000000000142 ) ) ;
#9 = DIRECTION ( 'NONE',  ( -0.000000000000000000, -0.000000000000000000, -1.000000000000000000 ) ) ;
#10 = EDGE_CURVE ( 'NONE', #97, #169, #34, .T. ) ;
#11 = ORIENTED_EDGE ( 'NONE', *, *, #10, .F. ) ;
#12 = DIRECTION ( 'NONE',  ( 0.000000000000000000, 0.000000000000000000, 1.000000000000000000 ) ) ;
#13 = EDGE_LOOP ( 'NONE', ( #262, #225 ) ) ;
#14 = AXIS2_PLACEMENT_3D ( 'NONE', #104, #12, #136 ) ;
#15 = CARTESIAN_POINT ( 'NONE',  ( 0.000000000000000000, 0.000000000000000000, 8.000000000000000000 ) ) ;
#16 = PLANE ( 'NONE',  #294 ) ;
#17 = CARTESIAN_POINT ( 'NONE',  ( -10.20000000000000107, 1.249139735130300365E-15, 8.000000000000000000 ) ) ;
#18 = PERSON_AND_ORGANIZATION ( #74, #110 ) ;
#19 = PERSON_AND_ORGANIZATION ( #74, #110 ) ;
#20 = AXIS2_PLACEMENT_3D ( 'NONE', #31, #101, #289 ) ;
#21 = ADVANCED_FACE ( 'NONE', ( #36 ), #29, .T. ) ;
#22 = APPROVAL_ROLE ( '' ) ;
#23 = CC_DESIGN_DATE_AND_TIME_ASSIGNMENT ( #162, #258, ( #278 ) ) ;
#24 = COORDINATED_UNIVERSAL_TIME_OFFSET ( 1, 0, .AHEAD. ) ;
#25 = AXIS2_PLACEMENT_3D ( 'NONE', #194, #252, #286 ) ;
#26 = ORIENTED_EDGE ( 'NONE', *, *, #175, .F. ) ;
#27 = PRODUCT_DEFINITION ( 'NEZNÁMÝ', '', #182, #77 ) ;
#28 = CIRCLE ( 'NONE', #234, 10.00000000000000000 ) ;
#29 = PLANE ( 'NONE',  #62 ) ;
#30 = PRODUCT_DEFINITION_SHAPE ( 'NONE', 'NONE',  #27 ) ;
#31 = CARTESIAN_POINT ( 'NONE',  ( 0.000000000000000000, 0.000000000000000000, 108.0000000000000142 ) ) ;
#32 = CARTESIAN_POINT ( 'NONE',  ( 10.20000000000000107, 0.000000000000000000, 8.199999999999999289 ) ) ;
#33 = LINE ( 'NONE', #218, #243 ) ;
#34 = CIRCLE ( 'NONE', #108, 13.00000000000000178 ) ;
#35 = DIRECTION ( 'NONE',  ( 1.224646799147353207E-16, 1.000000000000000000, -0.000000000000000000 ) ) ;
#36 = FACE_OUTER_BOUND ( 'NONE', #13, .T. ) ;
#37 = CARTESIAN_POINT ( 'NONE',  ( 0.000000000000000000, 0.000000000000000000, 8.000000000000000000 ) ) ;
#38 = APPROVAL ( #303, 'NEURÈENÝ' ) ;
#39 = CYLINDRICAL_SURFACE ( 'NONE', #130, 13.00000000000000178 ) ;
#40 = DIRECTION ( 'NONE',  ( 1.000000000000000000, 0.000000000000000000, 0.000000000000000000 ) ) ;
#41 = DIRECTION ( 'NONE',  ( 1.000000000000000000, 0.000000000000000000, -0.000000000000000000 ) ) ;
#42 = CC_DESIGN_APPROVAL ( #206, ( #182 ) ) ;
#43 = CARTESIAN_POINT ( 'NONE',  ( -10.00000000000000000, 0.000000000000000000, 108.0000000000000142 ) ) ;
#44 = PERSON_AND_ORGANIZATION ( #74, #110 ) ;
#45 = DATE_AND_TIME ( #233, #217 ) ;
#46 = CIRCLE ( 'NONE', #230, 13.00000000000000178 ) ;
#47 = EDGE_CURVE ( 'NONE', #201, #54, #242, .T. ) ;
#48 = DATE_AND_TIME ( #184, #57 ) ;
#49 = APPLICATION_CONTEXT ( 'configuration controlled 3d designs of mechanical parts and assemblies' ) ;
#50 = ORIENTED_EDGE ( 'NONE', *, *, #192, .T. ) ;
#51 = EDGE_CURVE ( 'NONE', #59, #133, #121, .T. ) ;
#52 = CIRCLE ( 'NONE', #14, 10.00000000000000000 ) ;
#53 = ORIENTED_EDGE ( 'NONE', *, *, #150, .F. ) ;
#54 = VERTEX_POINT ( 'NONE', #177 ) ;
#55 = VERTEX_POINT ( 'NONE', #247 ) ;
#56 = CC_DESIGN_PERSON_AND_ORGANIZATION_ASSIGNMENT ( #91, #144, ( #278 ) ) ;
#57 = LOCAL_TIME ( 11, 35, 2.000000000000000000, #306 ) ;
#58 = UNCERTAINTY_MEASURE_WITH_UNIT (LENGTH_MEASURE( 1.000000000000000082E-05 ), #65, 'distance_accuracy_value', 'NONE');
#59 = VERTEX_POINT ( 'NONE', #155 ) ;
#60 = ORIENTED_EDGE ( 'NONE', *, *, #112, .T. ) ;
#61 = CARTESIAN_POINT ( 'NONE',  ( 0.000000000000000000, 0.000000000000000000, 8.000000000000000000 ) ) ;
#62 = AXIS2_PLACEMENT_3D ( 'NONE', #151, #250, #174 ) ;
#63 = CARTESIAN_POINT ( 'NONE',  ( -10.20000000000000107, 1.249139735130300365E-15, 8.199999999999999289 ) ) ;
#64 = CARTESIAN_POINT ( 'NONE',  ( 0.000000000000000000, 0.000000000000000000, 8.199999999999999289 ) ) ;
#65 =( LENGTH_UNIT ( ) NAMED_UNIT ( * ) SI_UNIT ( .MILLI., .METRE. ) );
#66 = ORIENTED_EDGE ( 'NONE', *, *, #86, .T. ) ;
#67 = DIRECTION ( 'NONE',  ( 0.000000000000000000, 0.000000000000000000, 1.000000000000000000 ) ) ;
#68 = PERSON_AND_ORGANIZATION ( #74, #110 ) ;
#69 = PERSON_AND_ORGANIZATION_ROLE ( 'creator' ) ;
#70 = CLOSED_SHELL ( 'NONE', ( #139, #105, #96, #189, #297, #124, #145, #21, #141 ) ) ;
#71 = DATE_AND_TIME ( #281, #256 ) ;
#72 = VECTOR ( 'NONE', #138, 1000.000000000000000 ) ;
#73 = CIRCLE ( 'NONE', #185, 0.2000000000000005107 ) ;
#74 = PERSON ( 'NEURÈENÝ', 'NEURÈENÝ', 'NEURÈENÝ', ('NEURÈENÝ'), ('NEURÈENÝ'), ('NEURÈENÝ') ) ;
#75 = EDGE_CURVE ( 'NONE', #82, #201, #33, .T. ) ;
#76 = VERTEX_POINT ( 'NONE', #100 ) ;
#77 = DESIGN_CONTEXT ( 'detailed design', #123, 'design' ) ;
#78 = APPROVAL_PERSON_ORGANIZATION ( #92, #38, #22 ) ;
#79 = FACE_OUTER_BOUND ( 'NONE', #4, .T. ) ;
#80 = LINE ( 'NONE', #268, #72 ) ;
#81 = DIRECTION ( 'NONE',  ( 1.000000000000000000, 0.000000000000000000, 0.000000000000000000 ) ) ;
#82 = VERTEX_POINT ( 'NONE', #8 ) ;
#83 = CARTESIAN_POINT ( 'NONE',  ( 10.00000000000000000, 1.224646799147353256E-15, 8.199999999999999289 ) ) ;
#84 = ORIENTED_EDGE ( 'NONE', *, *, #150, .T. ) ;
#85 = AXIS2_PLACEMENT_3D ( 'NONE', #253, #221, #40 ) ;
#86 = EDGE_CURVE ( 'NONE', #133, #59, #115, .T. ) ;
#87 = EDGE_LOOP ( 'NONE', ( #196, #128, #167, #131 ) ) ;
#88 = FACE_OUTER_BOUND ( 'NONE', #87, .T. ) ;
#89 = DIRECTION ( 'NONE',  ( -1.000000000000000000, 0.000000000000000000, 0.000000000000000000 ) ) ;
#90 = CC_DESIGN_SECURITY_CLASSIFICATION ( #278, ( #182 ) ) ;
#91 = PERSON_AND_ORGANIZATION ( #74, #110 ) ;
#92 = PERSON_AND_ORGANIZATION ( #74, #110 ) ;
#93 = CC_DESIGN_PERSON_AND_ORGANIZATION_ASSIGNMENT ( #210, #235, ( #182 ) ) ;
#94 = PERSON_AND_ORGANIZATION_ROLE ( 'design_owner' ) ;
#95 = SHAPE_DEFINITION_REPRESENTATION ( #30, #212 ) ;
#96 = ADVANCED_FACE ( 'NONE', ( #79 ), #39, .T. ) ;
#97 = VERTEX_POINT ( 'NONE', #291 ) ;
#98 = EDGE_LOOP ( 'NONE', ( #148, #222, #3, #135 ) ) ;
#99 = AXIS2_PLACEMENT_3D ( 'NONE', #32, #229, #246 ) ;
#100 = CARTESIAN_POINT ( 'NONE',  ( 13.00000000000000178, 1.592040838891559293E-15, 8.000000000000000000 ) ) ;
#101 = DIRECTION ( 'NONE',  ( -0.000000000000000000, -0.000000000000000000, -1.000000000000000000 ) ) ;
#102 = FACE_OUTER_BOUND ( 'NONE', #98, .T. ) ;
#103 = DIRECTION ( 'NONE',  ( -0.000000000000000000, -0.000000000000000000, -1.000000000000000000 ) ) ;
#104 = CARTESIAN_POINT ( 'NONE',  ( 0.000000000000000000, 0.000000000000000000, 8.199999999999999289 ) ) ;
#105 = ADVANCED_FACE ( 'NONE', ( #171 ), #245, .T. ) ;
#106 = ORIENTED_EDGE ( 'NONE', *, *, #282, .F. ) ;
#107 = DIRECTION ( 'NONE',  ( 0.000000000000000000, 0.000000000000000000, 1.000000000000000000 ) ) ;
#108 = AXIS2_PLACEMENT_3D ( 'NONE', #153, #219, #199 ) ;
#109 = ORIENTED_EDGE ( 'NONE', *, *, #198, .T. ) ;
#110 = ORGANIZATION ( 'NEURÈENÝ', 'NEURÈENÝ', '' ) ;
#111 = FACE_OUTER_BOUND ( 'NONE', #193, .T. ) ;
#112 = EDGE_CURVE ( 'NONE', #239, #54, #80, .T. ) ;
#113 = FACE_OUTER_BOUND ( 'NONE', #213, .T. ) ;
#114 =( NAMED_UNIT ( * ) SI_UNIT ( $, .STERADIAN. ) SOLID_ANGLE_UNIT ( ) );
#115 = CIRCLE ( 'NONE', #25, 10.20000000000000107 ) ;
#116 = DATE_AND_TIME ( #142, #137 ) ;
#117 = CC_DESIGN_PERSON_AND_ORGANIZATION_ASSIGNMENT ( #19, #69, ( #27 ) ) ;
#118 = COORDINATED_UNIVERSAL_TIME_OFFSET ( 1, 0, .AHEAD. ) ;
#119 =( NAMED_UNIT ( * ) PLANE_ANGLE_UNIT ( ) SI_UNIT ( $, .RADIAN. ) );
#120 = APPLICATION_PROTOCOL_DEFINITION ( 'international standard', 'config_control_design', 1994, #49 ) ;
#121 = CIRCLE ( 'NONE', #6, 10.20000000000000107 ) ;
#122 = ORIENTED_EDGE ( 'NONE', *, *, #51, .T. ) ;
#123 = APPLICATION_CONTEXT ( 'configuration controlled 3d designs of mechanical parts and assemblies' ) ;
#124 = ADVANCED_FACE ( 'NONE', ( #231 ), #16, .F. ) ;
#125 = APPROVAL_PERSON_ORGANIZATION ( #300, #214, #279 ) ;
#126 = ORIENTED_EDGE ( 'NONE', *, *, #228, .T. ) ;
#127 = DIRECTION ( 'NONE',  ( 1.000000000000000000, 0.000000000000000000, 0.000000000000000000 ) ) ;
#128 = ORIENTED_EDGE ( 'NONE', *, *, #228, .F. ) ;
#129 = CARTESIAN_POINT ( 'NONE',  ( 0.000000000000000000, 0.000000000000000000, 8.000000000000000000 ) ) ;
#130 = AXIS2_PLACEMENT_3D ( 'NONE', #270, #103, #5 ) ;
#131 = ORIENTED_EDGE ( 'NONE', *, *, #10, .T. ) ;
#132 = DIRECTION ( 'NONE',  ( -0.000000000000000000, -0.000000000000000000, -1.000000000000000000 ) ) ;
#133 = VERTEX_POINT ( 'NONE', #17 ) ;
#134 = PLANE ( 'NONE',  #203 ) ;
#135 = ORIENTED_EDGE ( 'NONE', *, *, #86, .F. ) ;
#136 = DIRECTION ( 'NONE',  ( 1.000000000000000000, 0.000000000000000000, 0.000000000000000000 ) ) ;
#137 = LOCAL_TIME ( 11, 35, 2.000000000000000000, #163 ) ;
#138 = DIRECTION ( 'NONE',  ( -0.000000000000000000, -0.000000000000000000, -1.000000000000000000 ) ) ;
#139 = ADVANCED_FACE ( 'NONE', ( #113 ), #208, .F. ) ;
#140 = DIRECTION ( 'NONE',  ( 1.000000000000000000, 0.000000000000000000, 0.000000000000000000 ) ) ;
#141 = ADVANCED_FACE ( 'NONE', ( #102 ), #283, .F. ) ;
#142 = CALENDAR_DATE ( 2022, 7, 7 ) ;
#143 = AXIS2_PLACEMENT_3D ( 'NONE', #277, #154, #140 ) ;
#144 = PERSON_AND_ORGANIZATION_ROLE ( 'classification_officer' ) ;
#145 = ADVANCED_FACE ( 'NONE', ( #111 ), #205, .T. ) ;
#146 = DIRECTION ( 'NONE',  ( 1.000000000000000000, 0.000000000000000000, 0.000000000000000000 ) ) ;
#147 = ORIENTED_EDGE ( 'NONE', *, *, #47, .T. ) ;
#148 = ORIENTED_EDGE ( 'NONE', *, *, #251, .F. ) ;
#149 = AXIS2_PLACEMENT_3D ( 'NONE', #173, #9, #197 ) ;
#150 = EDGE_CURVE ( 'NONE', #54, #201, #52, .T. ) ;
#151 = CARTESIAN_POINT ( 'NONE',  ( 0.000000000000000000, 0.000000000000000000, 108.0000000000000142 ) ) ;
#152 = DIRECTION ( 'NONE',  ( 0.000000000000000000, 0.000000000000000000, 1.000000000000000000 ) ) ;
#153 = CARTESIAN_POINT ( 'NONE',  ( 0.000000000000000000, 0.000000000000000000, 0.000000000000000000 ) ) ;
#154 = DIRECTION ( 'NONE',  ( 0.000000000000000000, 0.000000000000000000, 1.000000000000000000 ) ) ;
#155 = CARTESIAN_POINT ( 'NONE',  ( 10.20000000000000107, 0.000000000000000000, 8.000000000000000000 ) ) ;
#156 = DIRECTION ( 'NONE',  ( -0.000000000000000000, -0.000000000000000000, -1.000000000000000000 ) ) ;
#157 = DIRECTION ( 'NONE',  ( 0.000000000000000000, 0.000000000000000000, 1.000000000000000000 ) ) ;
#158 = CARTESIAN_POINT ( 'NONE',  ( 13.00000000000000178, 1.592040838891559293E-15, 0.000000000000000000 ) ) ;
#159 = DIRECTION ( 'NONE',  ( 0.000000000000000000, 0.000000000000000000, 1.000000000000000000 ) ) ;
#160 = LINE ( 'NONE', #181, #248 ) ;
#161 = APPROVAL_DATE_TIME ( #48, #214 ) ;
#162 = DATE_AND_TIME ( #183, #211 ) ;
#163 = COORDINATED_UNIVERSAL_TIME_OFFSET ( 1, 0, .AHEAD. ) ;
#164 =( GEOMETRIC_REPRESENTATION_CONTEXT ( 3 ) GLOBAL_UNCERTAINTY_ASSIGNED_CONTEXT ( ( #58 ) ) GLOBAL_UNIT_ASSIGNED_CONTEXT ( ( #65, #119, #114 ) ) REPRESENTATION_CONTEXT ( 'NONE', 'WORKASPACE' ) );
#165 = APPROVAL_DATE_TIME ( #71, #38 ) ;
#166 = PRODUCT_RELATED_PRODUCT_CATEGORY ( 'detail', '', ( #288 ) ) ;
#167 = ORIENTED_EDGE ( 'NONE', *, *, #282, .T. ) ;
#168 = CIRCLE ( 'NONE', #143, 10.00000000000000000 ) ;
#169 = VERTEX_POINT ( 'NONE', #158 ) ;
#170 = CC_DESIGN_APPROVAL ( #214, ( #27 ) ) ;
#171 = FACE_OUTER_BOUND ( 'NONE', #190, .T. ) ;
#172 = DIRECTION ( 'NONE',  ( 1.000000000000000000, 0.000000000000000000, 0.000000000000000000 ) ) ;
#173 = CARTESIAN_POINT ( 'NONE',  ( 0.000000000000000000, 0.000000000000000000, 108.0000000000000142 ) ) ;
#174 = DIRECTION ( 'NONE',  ( 1.000000000000000000, 0.000000000000000000, -0.000000000000000000 ) ) ;
#175 = EDGE_CURVE ( 'NONE', #82, #239, #28, .T. ) ;
#176 = DIRECTION ( 'NONE',  ( 1.000000000000000000, 0.000000000000000000, 0.000000000000000000 ) ) ;
#177 = CARTESIAN_POINT ( 'NONE',  ( -10.00000000000000000, 0.000000000000000000, 8.199999999999999289 ) ) ;
#178 = DIRECTION ( 'NONE',  ( 0.000000000000000000, 0.000000000000000000, 1.000000000000000000 ) ) ;
#179 = EDGE_LOOP ( 'NONE', ( #122, #66 ) ) ;
#180 = CARTESIAN_POINT ( 'NONE',  ( 0.000000000000000000, 0.000000000000000000, 8.000000000000000000 ) ) ;
#181 = CARTESIAN_POINT ( 'NONE',  ( 13.00000000000000178, 1.592040838891559293E-15, 8.000000000000000000 ) ) ;
#182 = PRODUCT_DEFINITION_FORMATION_WITH_SPECIFIED_SOURCE ( 'LIBOVOLNÝ', '', #288, .NOT_KNOWN. ) ;
#183 = CALENDAR_DATE ( 2022, 7, 7 ) ;
#184 = CALENDAR_DATE ( 2022, 7, 7 ) ;
#185 = AXIS2_PLACEMENT_3D ( 'NONE', #63, #35, #202 ) ;
#186 = APPLICATION_PROTOCOL_DEFINITION ( 'international standard', 'config_control_design', 1994, #123 ) ;
#187 = ORIENTED_EDGE ( 'NONE', *, *, #215, .F. ) ;
#188 = CARTESIAN_POINT ( 'NONE',  ( 0.000000000000000000, 0.000000000000000000, 0.000000000000000000 ) ) ;
#189 = ADVANCED_FACE ( 'NONE', ( #88 ), #269, .T. ) ;
#190 = EDGE_LOOP ( 'NONE', ( #26, #275, #147, #265 ) ) ;
#191 = CIRCLE ( 'NONE', #99, 0.2000000000000005107 ) ;
#192 = EDGE_CURVE ( 'NONE', #169, #97, #46, .T. ) ;
#193 = EDGE_LOOP ( 'NONE', ( #267, #2, #60, #84 ) ) ;
#194 = CARTESIAN_POINT ( 'NONE',  ( 0.000000000000000000, 0.000000000000000000, 8.000000000000000000 ) ) ;
#195 = AXIS2_PLACEMENT_3D ( 'NONE', #180, #132, #89 ) ;
#196 = ORIENTED_EDGE ( 'NONE', *, *, #198, .F. ) ;
#197 = DIRECTION ( 'NONE',  ( -1.000000000000000000, 0.000000000000000000, 0.000000000000000000 ) ) ;
#198 = EDGE_CURVE ( 'NONE', #76, #169, #160, .T. ) ;
#199 = DIRECTION ( 'NONE',  ( 1.000000000000000000, 0.000000000000000000, 0.000000000000000000 ) ) ;
#200 = FACE_BOUND ( 'NONE', #179, .T. ) ;
#201 = VERTEX_POINT ( 'NONE', #83 ) ;
#202 = DIRECTION ( 'NONE',  ( -1.000000000000000000, 1.224646799147353207E-16, 0.000000000000000000 ) ) ;
#203 = AXIS2_PLACEMENT_3D ( 'NONE', #37, #295, #292 ) ;
#204 = DIRECTION ( 'NONE',  ( -0.000000000000000000, -0.000000000000000000, -1.000000000000000000 ) ) ;
#205 = CYLINDRICAL_SURFACE ( 'NONE', #149, 10.00000000000000000 ) ;
#206 = APPROVAL ( #259, 'NEURÈENÝ' ) ;
#207 = PERSON_AND_ORGANIZATION_ROLE ( 'creator' ) ;
#208 = TOROIDAL_SURFACE ( 'NONE', #285, 10.20000000000000107, 0.2000000000000000111 ) ;
#209 = APPROVAL_DATE_TIME ( #45, #206 ) ;
#210 = PERSON_AND_ORGANIZATION ( #74, #110 ) ;
#211 = LOCAL_TIME ( 11, 35, 2.000000000000000000, #302 ) ;
#212 = ADVANCED_BREP_SHAPE_REPRESENTATION ( '1791', ( #241, #260 ), #164 ) ;
#213 = EDGE_LOOP ( 'NONE', ( #53, #293, #296, #187 ) ) ;
#214 = APPROVAL ( #284, 'NEURÈENÝ' ) ;
#215 = EDGE_CURVE ( 'NONE', #201, #59, #191, .T. ) ;
#216 = EDGE_LOOP ( 'NONE', ( #11, #244 ) ) ;
#217 = LOCAL_TIME ( 11, 35, 2.000000000000000000, #24 ) ;
#218 = CARTESIAN_POINT ( 'NONE',  ( 10.00000000000000000, 1.224646799147353256E-15, 108.0000000000000142 ) ) ;
#219 = DIRECTION ( 'NONE',  ( 0.000000000000000000, 0.000000000000000000, 1.000000000000000000 ) ) ;
#220 = CC_DESIGN_APPROVAL ( #38, ( #278 ) ) ;
#221 = DIRECTION ( 'NONE',  ( 0.000000000000000000, 0.000000000000000000, 1.000000000000000000 ) ) ;
#222 = ORIENTED_EDGE ( 'NONE', *, *, #47, .F. ) ;
#223 = DIRECTION ( 'NONE',  ( 1.000000000000000000, 0.000000000000000000, 0.000000000000000000 ) ) ;
#224 = CC_DESIGN_PERSON_AND_ORGANIZATION_ASSIGNMENT ( #68, #94, ( #288 ) ) ;
#225 = ORIENTED_EDGE ( 'NONE', *, *, #175, .T. ) ;
#226 = FACE_OUTER_BOUND ( 'NONE', #307, .T. ) ;
#227 = ORIENTED_EDGE ( 'NONE', *, *, #240, .F. ) ;
#228 = EDGE_CURVE ( 'NONE', #55, #76, #301, .T. ) ;
#229 = DIRECTION ( 'NONE',  ( 0.000000000000000000, -1.000000000000000000, 0.000000000000000000 ) ) ;
#230 = AXIS2_PLACEMENT_3D ( 'NONE', #255, #178, #272 ) ;
#231 = FACE_OUTER_BOUND ( 'NONE', #216, .T. ) ;
#232 = LINE ( 'NONE', #249, #266 ) ;
#233 = CALENDAR_DATE ( 2022, 7, 7 ) ;
#234 = AXIS2_PLACEMENT_3D ( 'NONE', #298, #107, #176 ) ;
#235 = PERSON_AND_ORGANIZATION_ROLE ( 'design_supplier' ) ;
#236 = APPROVAL_ROLE ( '' ) ;
#237 = MECHANICAL_CONTEXT ( 'NONE', #49, 'mechanical' ) ;
#238 = AXIS2_PLACEMENT_3D ( 'NONE', #129, #67, #81 ) ;
#239 = VERTEX_POINT ( 'NONE', #43 ) ;
#240 = EDGE_CURVE ( 'NONE', #76, #55, #271, .T. ) ;
#241 = MANIFOLD_SOLID_BREP ( 'Zaoblit1', #70 ) ;
#242 = CIRCLE ( 'NONE', #263, 10.00000000000000000 ) ;
#243 = VECTOR ( 'NONE', #273, 1000.000000000000000 ) ;
#244 = ORIENTED_EDGE ( 'NONE', *, *, #192, .F. ) ;
#245 = CYLINDRICAL_SURFACE ( 'NONE', #20, 10.00000000000000000 ) ;
#246 = DIRECTION ( 'NONE',  ( 0.000000000000000000, 0.000000000000000000, -1.000000000000000000 ) ) ;
#247 = CARTESIAN_POINT ( 'NONE',  ( -13.00000000000000178, 0.000000000000000000, 8.000000000000000000 ) ) ;
#248 = VECTOR ( 'NONE', #290, 1000.000000000000000 ) ;
#249 = CARTESIAN_POINT ( 'NONE',  ( -13.00000000000000178, 0.000000000000000000, 8.000000000000000000 ) ) ;
#250 = DIRECTION ( 'NONE',  ( 0.000000000000000000, 0.000000000000000000, 1.000000000000000000 ) ) ;
#251 = EDGE_CURVE ( 'NONE', #54, #133, #73, .T. ) ;
#252 = DIRECTION ( 'NONE',  ( -0.000000000000000000, -0.000000000000000000, -1.000000000000000000 ) ) ;
#253 = CARTESIAN_POINT ( 'NONE',  ( 0.000000000000000000, 0.000000000000000000, 8.199999999999999289 ) ) ;
#254 = CARTESIAN_POINT ( 'NONE',  ( 0.000000000000000000, 0.000000000000000000, 0.000000000000000000 ) ) ;
#255 = CARTESIAN_POINT ( 'NONE',  ( 0.000000000000000000, 0.000000000000000000, 0.000000000000000000 ) ) ;
#256 = LOCAL_TIME ( 11, 35, 2.000000000000000000, #118 ) ;
#257 = DATE_TIME_ROLE ( 'creation_date' ) ;
#258 = DATE_TIME_ROLE ( 'classification_date' ) ;
#259 = APPROVAL_STATUS ( 'not_yet_approved' ) ;
#260 = AXIS2_PLACEMENT_3D ( 'NONE', #188, #261, #146 ) ;
#261 = DIRECTION ( 'NONE',  ( 0.000000000000000000, 0.000000000000000000, 1.000000000000000000 ) ) ;
#262 = ORIENTED_EDGE ( 'NONE', *, *, #280, .T. ) ;
#263 = AXIS2_PLACEMENT_3D ( 'NONE', #64, #157, #172 ) ;
#264 = ORIENTED_EDGE ( 'NONE', *, *, #240, .T. ) ;
#265 = ORIENTED_EDGE ( 'NONE', *, *, #112, .F. ) ;
#266 = VECTOR ( 'NONE', #156, 1000.000000000000000 ) ;
#267 = ORIENTED_EDGE ( 'NONE', *, *, #75, .F. ) ;
#268 = CARTESIAN_POINT ( 'NONE',  ( -10.00000000000000000, 0.000000000000000000, 108.0000000000000142 ) ) ;
#269 = CYLINDRICAL_SURFACE ( 'NONE', #195, 13.00000000000000178 ) ;
#270 = CARTESIAN_POINT ( 'NONE',  ( 0.000000000000000000, 0.000000000000000000, 8.000000000000000000 ) ) ;
#271 = CIRCLE ( 'NONE', #238, 13.00000000000000178 ) ;
#272 = DIRECTION ( 'NONE',  ( 1.000000000000000000, 0.000000000000000000, 0.000000000000000000 ) ) ;
#273 = DIRECTION ( 'NONE',  ( -0.000000000000000000, -0.000000000000000000, -1.000000000000000000 ) ) ;
#274 = CC_DESIGN_DATE_AND_TIME_ASSIGNMENT ( #116, #257, ( #27 ) ) ;
#275 = ORIENTED_EDGE ( 'NONE', *, *, #75, .T. ) ;
#276 = DIRECTION ( 'NONE',  ( 0.000000000000000000, 0.000000000000000000, 1.000000000000000000 ) ) ;
#277 = CARTESIAN_POINT ( 'NONE',  ( 0.000000000000000000, 0.000000000000000000, 108.0000000000000142 ) ) ;
#278 = SECURITY_CLASSIFICATION ( '', '', #304 ) ;
#279 = APPROVAL_ROLE ( '' ) ;
#280 = EDGE_CURVE ( 'NONE', #239, #82, #168, .T. ) ;
#281 = CALENDAR_DATE ( 2022, 7, 7 ) ;
#282 = EDGE_CURVE ( 'NONE', #55, #97, #232, .T. ) ;
#283 = TOROIDAL_SURFACE ( 'NONE', #85, 10.20000000000000107, 0.2000000000000000111 ) ;
#284 = APPROVAL_STATUS ( 'not_yet_approved' ) ;
#285 = AXIS2_PLACEMENT_3D ( 'NONE', #299, #152, #7 ) ;
#286 = DIRECTION ( 'NONE',  ( 1.000000000000000000, 0.000000000000000000, 0.000000000000000000 ) ) ;
#287 = AXIS2_PLACEMENT_3D ( 'NONE', #15, #276, #223 ) ;
#288 = PRODUCT ( '1791', '1791', '', ( #237 ) ) ;
#289 = DIRECTION ( 'NONE',  ( -1.000000000000000000, 0.000000000000000000, 0.000000000000000000 ) ) ;
#290 = DIRECTION ( 'NONE',  ( -0.000000000000000000, -0.000000000000000000, -1.000000000000000000 ) ) ;
#291 = CARTESIAN_POINT ( 'NONE',  ( -13.00000000000000178, 0.000000000000000000, 0.000000000000000000 ) ) ;
#292 = DIRECTION ( 'NONE',  ( 1.000000000000000000, 0.000000000000000000, -0.000000000000000000 ) ) ;
#293 = ORIENTED_EDGE ( 'NONE', *, *, #251, .T. ) ;
#294 = AXIS2_PLACEMENT_3D ( 'NONE', #254, #159, #41 ) ;
#295 = DIRECTION ( 'NONE',  ( 0.000000000000000000, 0.000000000000000000, 1.000000000000000000 ) ) ;
#296 = ORIENTED_EDGE ( 'NONE', *, *, #51, .F. ) ;
#297 = ADVANCED_FACE ( 'NONE', ( #200, #226 ), #134, .T. ) ;
#298 = CARTESIAN_POINT ( 'NONE',  ( 0.000000000000000000, 0.000000000000000000, 108.0000000000000142 ) ) ;
#299 = CARTESIAN_POINT ( 'NONE',  ( 0.000000000000000000, 0.000000000000000000, 8.199999999999999289 ) ) ;
#300 = PERSON_AND_ORGANIZATION ( #74, #110 ) ;
#301 = CIRCLE ( 'NONE', #287, 13.00000000000000178 ) ;
#302 = COORDINATED_UNIVERSAL_TIME_OFFSET ( 1, 0, .AHEAD. ) ;
#303 = APPROVAL_STATUS ( 'not_yet_approved' ) ;
#304 = SECURITY_CLASSIFICATION_LEVEL ( 'unclassified' ) ;
#305 = APPROVAL_PERSON_ORGANIZATION ( #44, #206, #236 ) ;
#306 = COORDINATED_UNIVERSAL_TIME_OFFSET ( 1, 0, .AHEAD. ) ;
#307 = EDGE_LOOP ( 'NONE', ( #126, #264 ) ) ;
ENDSEC;
END-ISO-10303-21;
