ISO-10303-21;
HEADER;
FILE_DESCRIPTION (( 'STEP AP203' ),
    '1' );
FILE_NAME ('1506.STEP',
    '2022-07-07T09:30:14',
    ( '' ),
    ( '' ),
    'SwSTEP 2.0',
    'SolidWorks 2019',
    '' );
FILE_SCHEMA (( 'CONFIG_CONTROL_DESIGN' ));
ENDSEC;

DATA;
#1 = CIRCLE ( 'NONE', #269, 20.00000000000000000 ) ;
#2 = PERSON_AND_ORGANIZATION ( #273, #133 ) ;
#3 = CARTESIAN_POINT ( 'NONE',  ( 0.000000000000000000, 0.000000000000000000, 0.000000000000000000 ) ) ;
#4 = DIRECTION ( 'NONE',  ( 1.000000000000000000, 0.000000000000000000, -0.000000000000000000 ) ) ;
#5 = ORIENTED_EDGE ( 'NONE', *, *, #151, .F. ) ;
#6 = LOCAL_TIME ( 11, 30, 14.00000000000000000, #123 ) ;
#7 = ORIENTED_EDGE ( 'NONE', *, *, #17, .T. ) ;
#8 = ORIENTED_EDGE ( 'NONE', *, *, #215, .T. ) ;
#9 = APPLICATION_CONTEXT ( 'configuration controlled 3d designs of mechanical parts and assemblies' ) ;
#10 = DIRECTION ( 'NONE',  ( -1.000000000000000000, 1.224646799147353947E-16, 0.000000000000000000 ) ) ;
#11 = AXIS2_PLACEMENT_3D ( 'NONE', #296, #89, #111 ) ;
#12 = MECHANICAL_CONTEXT ( 'NONE', #241, 'mechanical' ) ;
#13 = DESIGN_CONTEXT ( 'detailed design', #9, 'design' ) ;
#14 = DIRECTION ( 'NONE',  ( 1.000000000000000000, 0.000000000000000000, 0.000000000000000000 ) ) ;
#15 = SECURITY_CLASSIFICATION ( '', '', #290 ) ;
#16 = CARTESIAN_POINT ( 'NONE',  ( 16.00000000000000000, 1.959434878635765131E-15, 135.0000000000000000 ) ) ;
#17 = EDGE_CURVE ( 'NONE', #293, #295, #226, .T. ) ;
#18 = FACE_OUTER_BOUND ( 'NONE', #236, .T. ) ;
#19 = AXIS2_PLACEMENT_3D ( 'NONE', #48, #234, #158 ) ;
#20 = ORIENTED_EDGE ( 'NONE', *, *, #81, .F. ) ;
#21 = DIRECTION ( 'NONE',  ( -0.000000000000000000, -0.000000000000000000, -1.000000000000000000 ) ) ;
#22 = EDGE_CURVE ( 'NONE', #65, #139, #42, .T. ) ;
#23 = EDGE_LOOP ( 'NONE', ( #7, #73 ) ) ;
#24 = APPROVAL_DATE_TIME ( #124, #28 ) ;
#25 = MANIFOLD_SOLID_BREP ( 'Zaoblit1', #268 ) ;
#26 = APPROVAL_STATUS ( 'not_yet_approved' ) ;
#27 = DATE_AND_TIME ( #165, #49 ) ;
#28 = APPROVAL ( #141, 'NEURÈENÝ' ) ;
#29 = AXIS2_PLACEMENT_3D ( 'NONE', #32, #219, #194 ) ;
#30 = DIRECTION ( 'NONE',  ( 0.000000000000000000, 0.000000000000000000, 1.000000000000000000 ) ) ;
#31 = AXIS2_PLACEMENT_3D ( 'NONE', #154, #36, #10 ) ;
#32 = CARTESIAN_POINT ( 'NONE',  ( 0.000000000000000000, 0.000000000000000000, 135.0000000000000000 ) ) ;
#33 = DIRECTION ( 'NONE',  ( -0.000000000000000000, -0.000000000000000000, -1.000000000000000000 ) ) ;
#34 = AXIS2_PLACEMENT_3D ( 'NONE', #155, #210, #231 ) ;
#35 = ORIENTED_EDGE ( 'NONE', *, *, #252, .F. ) ;
#36 = DIRECTION ( 'NONE',  ( 1.224646799147353207E-16, 1.000000000000000000, -0.000000000000000000 ) ) ;
#37 = CC_DESIGN_PERSON_AND_ORGANIZATION_ASSIGNMENT ( #263, #187, ( #216 ) ) ;
#38 = ORIENTED_EDGE ( 'NONE', *, *, #306, .T. ) ;
#39 = VERTEX_POINT ( 'NONE', #270 ) ;
#40 = CARTESIAN_POINT ( 'NONE',  ( 0.000000000000000000, 0.000000000000000000, 10.00000000000000000 ) ) ;
#41 = PRODUCT_RELATED_PRODUCT_CATEGORY ( 'detail', '', ( #277 ) ) ;
#42 = CIRCLE ( 'NONE', #169, 20.00000000000000000 ) ;
#43 = DIRECTION ( 'NONE',  ( 0.000000000000000000, 0.000000000000000000, 1.000000000000000000 ) ) ;
#44 = FACE_OUTER_BOUND ( 'NONE', #221, .T. ) ;
#45 = EDGE_CURVE ( 'NONE', #95, #233, #47, .T. ) ;
#46 = CARTESIAN_POINT ( 'NONE',  ( 0.000000000000000000, 0.000000000000000000, 10.20000000000000107 ) ) ;
#47 = CIRCLE ( 'NONE', #211, 16.00000000000000000 ) ;
#48 = CARTESIAN_POINT ( 'NONE',  ( 0.000000000000000000, 0.000000000000000000, 10.00000000000000000 ) ) ;
#49 = LOCAL_TIME ( 11, 30, 14.00000000000000000, #189 ) ;
#50 = ORIENTED_EDGE ( 'NONE', *, *, #45, .T. ) ;
#51 = CARTESIAN_POINT ( 'NONE',  ( 20.00000000000000000, 2.449293598294706513E-15, 10.00000000000000000 ) ) ;
#52 = EDGE_CURVE ( 'NONE', #242, #140, #256, .T. ) ;
#53 = ORIENTED_EDGE ( 'NONE', *, *, #228, .F. ) ;
#54 = DATE_TIME_ROLE ( 'classification_date' ) ;
#55 = APPROVAL_DATE_TIME ( #190, #63 ) ;
#56 = LOCAL_TIME ( 11, 30, 14.00000000000000000, #146 ) ;
#57 = APPROVAL_ROLE ( '' ) ;
#58 = CALENDAR_DATE ( 2022, 7, 7 ) ;
#59 = DIRECTION ( 'NONE',  ( 1.000000000000000000, 0.000000000000000000, 0.000000000000000000 ) ) ;
#60 = FACE_BOUND ( 'NONE', #23, .T. ) ;
#61 = AXIS2_PLACEMENT_3D ( 'NONE', #227, #175, #275 ) ;
#62 = DIRECTION ( 'NONE',  ( 0.000000000000000000, 0.000000000000000000, 1.000000000000000000 ) ) ;
#63 = APPROVAL ( #77, 'NEURÈENÝ' ) ;
#64 = CARTESIAN_POINT ( 'NONE',  ( -16.00000000000000000, 0.000000000000000000, 135.0000000000000000 ) ) ;
#65 = VERTEX_POINT ( 'NONE', #105 ) ;
#66 = VECTOR ( 'NONE', #255, 1000.000000000000000 ) ;
#67 = FACE_OUTER_BOUND ( 'NONE', #186, .T. ) ;
#68 = FACE_OUTER_BOUND ( 'NONE', #118, .T. ) ;
#69 = CARTESIAN_POINT ( 'NONE',  ( 0.000000000000000000, 0.000000000000000000, 10.00000000000000000 ) ) ;
#70 = CYLINDRICAL_SURFACE ( 'NONE', #260, 16.00000000000000000 ) ;
#71 = DIRECTION ( 'NONE',  ( 1.000000000000000000, 0.000000000000000000, 0.000000000000000000 ) ) ;
#72 = CIRCLE ( 'NONE', #240, 20.00000000000000000 ) ;
#73 = ORIENTED_EDGE ( 'NONE', *, *, #81, .T. ) ;
#74 = FACE_OUTER_BOUND ( 'NONE', #121, .T. ) ;
#75 = AXIS2_PLACEMENT_3D ( 'NONE', #40, #104, #172 ) ;
#76 = ORIENTED_EDGE ( 'NONE', *, *, #100, .T. ) ;
#77 = APPROVAL_STATUS ( 'not_yet_approved' ) ;
#78 = EDGE_CURVE ( 'NONE', #139, #65, #72, .T. ) ;
#79 = COORDINATED_UNIVERSAL_TIME_OFFSET ( 1, 0, .AHEAD. ) ;
#80 = PERSON_AND_ORGANIZATION ( #273, #133 ) ;
#81 = EDGE_CURVE ( 'NONE', #295, #293, #109, .T. ) ;
#82 = DATE_TIME_ROLE ( 'creation_date' ) ;
#83 = PERSON_AND_ORGANIZATION_ROLE ( 'creator' ) ;
#84 = DIRECTION ( 'NONE',  ( 1.000000000000000000, 0.000000000000000000, 0.000000000000000000 ) ) ;
#85 = DIRECTION ( 'NONE',  ( 0.000000000000000000, 0.000000000000000000, 1.000000000000000000 ) ) ;
#86 = APPROVAL_PERSON_ORGANIZATION ( #163, #63, #101 ) ;
#87 = EDGE_LOOP ( 'NONE', ( #149, #258, #281, #98 ) ) ;
#88 = AXIS2_PLACEMENT_3D ( 'NONE', #282, #161, #229 ) ;
#89 = DIRECTION ( 'NONE',  ( 0.000000000000000000, 0.000000000000000000, 1.000000000000000000 ) ) ;
#90 = CYLINDRICAL_SURFACE ( 'NONE', #138, 16.00000000000000000 ) ;
#91 = LINE ( 'NONE', #16, #191 ) ;
#92 = LINE ( 'NONE', #204, #66 ) ;
#93 = DIRECTION ( 'NONE',  ( -1.000000000000000000, 0.000000000000000000, 0.000000000000000000 ) ) ;
#94 = PRODUCT_DEFINITION ( 'NEZNÁMÝ', '', #216, #13 ) ;
#95 = VERTEX_POINT ( 'NONE', #279 ) ;
#96 = PERSON_AND_ORGANIZATION_ROLE ( 'classification_officer' ) ;
#97 = DIRECTION ( 'NONE',  ( 1.000000000000000000, 0.000000000000000000, 0.000000000000000000 ) ) ;
#98 = ORIENTED_EDGE ( 'NONE', *, *, #112, .F. ) ;
#99 = CALENDAR_DATE ( 2022, 7, 7 ) ;
#100 = EDGE_CURVE ( 'NONE', #107, #39, #207, .T. ) ;
#101 = APPROVAL_ROLE ( '' ) ;
#102 = TOROIDAL_SURFACE ( 'NONE', #232, 16.19999999999999929, 0.2000000000000000111 ) ;
#103 = DIRECTION ( 'NONE',  ( 1.000000000000000000, 0.000000000000000000, 0.000000000000000000 ) ) ;
#104 = DIRECTION ( 'NONE',  ( 0.000000000000000000, 0.000000000000000000, 1.000000000000000000 ) ) ;
#105 = CARTESIAN_POINT ( 'NONE',  ( 20.00000000000000000, 2.449293598294706513E-15, 0.000000000000000000 ) ) ;
#106 = EDGE_LOOP ( 'NONE', ( #248, #305 ) ) ;
#107 = VERTEX_POINT ( 'NONE', #51 ) ;
#108 = PLANE ( 'NONE',  #75 ) ;
#109 = CIRCLE ( 'NONE', #283, 16.19999999999999929 ) ;
#110 = AXIS2_PLACEMENT_3D ( 'NONE', #274, #43, #4 ) ;
#111 = DIRECTION ( 'NONE',  ( 1.000000000000000000, 0.000000000000000000, 0.000000000000000000 ) ) ;
#112 = EDGE_CURVE ( 'NONE', #233, #293, #247, .T. ) ;
#113 = CARTESIAN_POINT ( 'NONE',  ( 16.00000000000000000, 1.959434878635765131E-15, 10.20000000000000107 ) ) ;
#114 = UNCERTAINTY_MEASURE_WITH_UNIT (LENGTH_MEASURE( 1.000000000000000082E-05 ), #195, 'distance_accuracy_value', 'NONE');
#115 = CYLINDRICAL_SURFACE ( 'NONE', #34, 20.00000000000000000 ) ;
#116 = DIRECTION ( 'NONE',  ( -0.000000000000000000, -0.000000000000000000, -1.000000000000000000 ) ) ;
#117 = EDGE_CURVE ( 'NONE', #140, #233, #91, .T. ) ;
#118 = EDGE_LOOP ( 'NONE', ( #38, #76 ) ) ;
#119 = DIRECTION ( 'NONE',  ( -1.000000000000000000, 0.000000000000000000, 0.000000000000000000 ) ) ;
#120 = ADVANCED_BREP_SHAPE_REPRESENTATION ( '1506', ( #25, #61 ), #182 ) ;
#121 = EDGE_LOOP ( 'NONE', ( #160, #212, #271, #303 ) ) ;
#122 = PERSON_AND_ORGANIZATION_ROLE ( 'design_supplier' ) ;
#123 = COORDINATED_UNIVERSAL_TIME_OFFSET ( 1, 0, .AHEAD. ) ;
#124 = DATE_AND_TIME ( #265, #129 ) ;
#125 = VECTOR ( 'NONE', #33, 1000.000000000000000 ) ;
#126 = DIRECTION ( 'NONE',  ( -0.000000000000000000, -0.000000000000000000, -1.000000000000000000 ) ) ;
#127 = CARTESIAN_POINT ( 'NONE',  ( 16.19999999999999929, 0.000000000000000000, 10.00000000000000000 ) ) ;
#128 = CARTESIAN_POINT ( 'NONE',  ( 0.000000000000000000, 0.000000000000000000, 10.20000000000000107 ) ) ;
#129 = LOCAL_TIME ( 11, 30, 14.00000000000000000, #214 ) ;
#130 = ADVANCED_FACE ( 'NONE', ( #74 ), #115, .T. ) ;
#131 = EDGE_LOOP ( 'NONE', ( #183, #224, #198, #261 ) ) ;
#132 = CARTESIAN_POINT ( 'NONE',  ( -20.00000000000000000, 0.000000000000000000, 10.00000000000000000 ) ) ;
#133 = ORGANIZATION ( 'NEURÈENÝ', 'NEURÈENÝ', '' ) ;
#134 = PLANE ( 'NONE',  #304 ) ;
#135 = DIRECTION ( 'NONE',  ( -0.000000000000000000, -0.000000000000000000, -1.000000000000000000 ) ) ;
#136 = CARTESIAN_POINT ( 'NONE',  ( -16.00000000000000000, 0.000000000000000000, 135.0000000000000000 ) ) ;
#137 = DIRECTION ( 'NONE',  ( -0.000000000000000000, -0.000000000000000000, -1.000000000000000000 ) ) ;
#138 = AXIS2_PLACEMENT_3D ( 'NONE', #206, #116, #180 ) ;
#139 = VERTEX_POINT ( 'NONE', #302 ) ;
#140 = VERTEX_POINT ( 'NONE', #230 ) ;
#141 = APPROVAL_STATUS ( 'not_yet_approved' ) ;
#142 = CC_DESIGN_PERSON_AND_ORGANIZATION_ASSIGNMENT ( #307, #122, ( #216 ) ) ;
#143 = CC_DESIGN_APPROVAL ( #246, ( #216 ) ) ;
#144 = PERSON_AND_ORGANIZATION ( #273, #133 ) ;
#145 = PERSON_AND_ORGANIZATION ( #273, #133 ) ;
#146 = COORDINATED_UNIVERSAL_TIME_OFFSET ( 1, 0, .AHEAD. ) ;
#147 = ORIENTED_EDGE ( 'NONE', *, *, #52, .F. ) ;
#148 = CIRCLE ( 'NONE', #11, 16.00000000000000000 ) ;
#149 = ORIENTED_EDGE ( 'NONE', *, *, #45, .F. ) ;
#150 = DIRECTION ( 'NONE',  ( 1.000000000000000000, 0.000000000000000000, -0.000000000000000000 ) ) ;
#151 = EDGE_CURVE ( 'NONE', #107, #65, #92, .T. ) ;
#152 = EDGE_LOOP ( 'NONE', ( #35, #53, #285, #20 ) ) ;
#153 = CARTESIAN_POINT ( 'NONE',  ( 0.000000000000000000, 0.000000000000000000, 0.000000000000000000 ) ) ;
#154 = CARTESIAN_POINT ( 'NONE',  ( -16.19999999999999929, 1.983927814618711846E-15, 10.20000000000000107 ) ) ;
#155 = CARTESIAN_POINT ( 'NONE',  ( 0.000000000000000000, 0.000000000000000000, 10.00000000000000000 ) ) ;
#156 = CARTESIAN_POINT ( 'NONE',  ( 0.000000000000000000, 0.000000000000000000, 135.0000000000000000 ) ) ;
#157 = CC_DESIGN_PERSON_AND_ORGANIZATION_ASSIGNMENT ( #2, #193, ( #277 ) ) ;
#158 = DIRECTION ( 'NONE',  ( 1.000000000000000000, 0.000000000000000000, 0.000000000000000000 ) ) ;
#159 = CIRCLE ( 'NONE', #201, 16.00000000000000000 ) ;
#160 = ORIENTED_EDGE ( 'NONE', *, *, #100, .F. ) ;
#161 = DIRECTION ( 'NONE',  ( 0.000000000000000000, 0.000000000000000000, 1.000000000000000000 ) ) ;
#162 = ORIENTED_EDGE ( 'NONE', *, *, #78, .T. ) ;
#163 = PERSON_AND_ORGANIZATION ( #273, #133 ) ;
#164 = ADVANCED_FACE ( 'NONE', ( #178 ), #70, .T. ) ;
#165 = CALENDAR_DATE ( 2022, 7, 7 ) ;
#166 = ADVANCED_FACE ( 'NONE', ( #278 ), #102, .F. ) ;
#167 = CARTESIAN_POINT ( 'NONE',  ( 0.000000000000000000, 0.000000000000000000, 10.00000000000000000 ) ) ;
#168 =( NAMED_UNIT ( * ) PLANE_ANGLE_UNIT ( ) SI_UNIT ( $, .RADIAN. ) );
#169 = AXIS2_PLACEMENT_3D ( 'NONE', #3, #85, #103 ) ;
#170 = ORIENTED_EDGE ( 'NONE', *, *, #78, .F. ) ;
#171 = LOCAL_TIME ( 11, 30, 14.00000000000000000, #79 ) ;
#172 = DIRECTION ( 'NONE',  ( 1.000000000000000000, 0.000000000000000000, -0.000000000000000000 ) ) ;
#173 = CC_DESIGN_PERSON_AND_ORGANIZATION_ASSIGNMENT ( #262, #83, ( #94 ) ) ;
#174 = CC_DESIGN_APPROVAL ( #63, ( #94 ) ) ;
#175 = DIRECTION ( 'NONE',  ( 0.000000000000000000, 0.000000000000000000, 1.000000000000000000 ) ) ;
#176 = CARTESIAN_POINT ( 'NONE',  ( 16.19999999999999929, 0.000000000000000000, 10.20000000000000107 ) ) ;
#177 = APPROVAL_PERSON_ORGANIZATION ( #145, #28, #213 ) ;
#178 = FACE_OUTER_BOUND ( 'NONE', #131, .T. ) ;
#179 = ADVANCED_FACE ( 'NONE', ( #18 ), #90, .T. ) ;
#180 = DIRECTION ( 'NONE',  ( -1.000000000000000000, 0.000000000000000000, 0.000000000000000000 ) ) ;
#181 = FACE_OUTER_BOUND ( 'NONE', #87, .T. ) ;
#182 =( GEOMETRIC_REPRESENTATION_CONTEXT ( 3 ) GLOBAL_UNCERTAINTY_ASSIGNED_CONTEXT ( ( #114 ) ) GLOBAL_UNIT_ASSIGNED_CONTEXT ( ( #195, #168, #249 ) ) REPRESENTATION_CONTEXT ( 'NONE', 'WORKASPACE' ) );
#183 = ORIENTED_EDGE ( 'NONE', *, *, #264, .F. ) ;
#184 = DATE_AND_TIME ( #237, #6 ) ;
#185 = DIRECTION ( 'NONE',  ( 0.000000000000000000, -1.000000000000000000, 0.000000000000000000 ) ) ;
#186 = EDGE_LOOP ( 'NONE', ( #170, #209 ) ) ;
#187 = PERSON_AND_ORGANIZATION_ROLE ( 'creator' ) ;
#188 = CC_DESIGN_APPROVAL ( #28, ( #15 ) ) ;
#189 = COORDINATED_UNIVERSAL_TIME_OFFSET ( 1, 0, .AHEAD. ) ;
#190 = DATE_AND_TIME ( #58, #171 ) ;
#191 = VECTOR ( 'NONE', #137, 1000.000000000000000 ) ;
#192 = DIRECTION ( 'NONE',  ( 1.000000000000000000, 0.000000000000000000, 0.000000000000000000 ) ) ;
#193 = PERSON_AND_ORGANIZATION_ROLE ( 'design_owner' ) ;
#194 = DIRECTION ( 'NONE',  ( 1.000000000000000000, 0.000000000000000000, 0.000000000000000000 ) ) ;
#195 =( LENGTH_UNIT ( ) NAMED_UNIT ( * ) SI_UNIT ( .MILLI., .METRE. ) );
#196 = ADVANCED_FACE ( 'NONE', ( #44 ), #208, .T. ) ;
#197 = DIRECTION ( 'NONE',  ( 0.000000000000000000, 0.000000000000000000, 1.000000000000000000 ) ) ;
#198 = ORIENTED_EDGE ( 'NONE', *, *, #228, .T. ) ;
#199 = AXIS2_PLACEMENT_3D ( 'NONE', #291, #126, #192 ) ;
#200 = ORIENTED_EDGE ( 'NONE', *, *, #243, .T. ) ;
#201 = AXIS2_PLACEMENT_3D ( 'NONE', #259, #280, #14 ) ;
#202 = CARTESIAN_POINT ( 'NONE',  ( -16.19999999999999929, 1.983927814618711846E-15, 10.00000000000000000 ) ) ;
#203 = TOROIDAL_SURFACE ( 'NONE', #88, 16.19999999999999929, 0.2000000000000000111 ) ;
#204 = CARTESIAN_POINT ( 'NONE',  ( 20.00000000000000000, 2.449293598294706513E-15, 10.00000000000000000 ) ) ;
#205 = FACE_OUTER_BOUND ( 'NONE', #106, .T. ) ;
#206 = CARTESIAN_POINT ( 'NONE',  ( 0.000000000000000000, 0.000000000000000000, 135.0000000000000000 ) ) ;
#207 = CIRCLE ( 'NONE', #19, 20.00000000000000000 ) ;
#208 = CYLINDRICAL_SURFACE ( 'NONE', #272, 20.00000000000000000 ) ;
#209 = ORIENTED_EDGE ( 'NONE', *, *, #22, .F. ) ;
#210 = DIRECTION ( 'NONE',  ( -0.000000000000000000, -0.000000000000000000, -1.000000000000000000 ) ) ;
#211 = AXIS2_PLACEMENT_3D ( 'NONE', #128, #62, #59 ) ;
#212 = ORIENTED_EDGE ( 'NONE', *, *, #151, .T. ) ;
#213 = APPROVAL_ROLE ( '' ) ;
#214 = COORDINATED_UNIVERSAL_TIME_OFFSET ( 1, 0, .AHEAD. ) ;
#215 = EDGE_CURVE ( 'NONE', #242, #95, #254, .T. ) ;
#216 = PRODUCT_DEFINITION_FORMATION_WITH_SPECIFIED_SOURCE ( 'LIBOVOLNÝ', '', #277, .NOT_KNOWN. ) ;
#217 = DIRECTION ( 'NONE',  ( 1.000000000000000000, 0.000000000000000000, 0.000000000000000000 ) ) ;
#218 = VECTOR ( 'NONE', #135, 1000.000000000000000 ) ;
#219 = DIRECTION ( 'NONE',  ( 0.000000000000000000, 0.000000000000000000, 1.000000000000000000 ) ) ;
#220 = CARTESIAN_POINT ( 'NONE',  ( 0.000000000000000000, 0.000000000000000000, 10.00000000000000000 ) ) ;
#221 = EDGE_LOOP ( 'NONE', ( #5, #287, #200, #162 ) ) ;
#222 = CC_DESIGN_SECURITY_CLASSIFICATION ( #15, ( #216 ) ) ;
#223 = ORIENTED_EDGE ( 'NONE', *, *, #117, .F. ) ;
#224 = ORIENTED_EDGE ( 'NONE', *, *, #117, .T. ) ;
#225 = ADVANCED_FACE ( 'NONE', ( #181 ), #203, .F. ) ;
#226 = CIRCLE ( 'NONE', #199, 16.19999999999999929 ) ;
#227 = CARTESIAN_POINT ( 'NONE',  ( 0.000000000000000000, 0.000000000000000000, 0.000000000000000000 ) ) ;
#228 = EDGE_CURVE ( 'NONE', #233, #95, #159, .T. ) ;
#229 = DIRECTION ( 'NONE',  ( 1.000000000000000000, 0.000000000000000000, 0.000000000000000000 ) ) ;
#230 = CARTESIAN_POINT ( 'NONE',  ( 16.00000000000000000, 1.959434878635765131E-15, 135.0000000000000000 ) ) ;
#231 = DIRECTION ( 'NONE',  ( -1.000000000000000000, 0.000000000000000000, 0.000000000000000000 ) ) ;
#232 = AXIS2_PLACEMENT_3D ( 'NONE', #46, #299, #97 ) ;
#233 = VERTEX_POINT ( 'NONE', #113 ) ;
#234 = DIRECTION ( 'NONE',  ( 0.000000000000000000, 0.000000000000000000, 1.000000000000000000 ) ) ;
#235 = ADVANCED_FACE ( 'NONE', ( #205 ), #300, .T. ) ;
#236 = EDGE_LOOP ( 'NONE', ( #223, #147, #8, #50 ) ) ;
#237 = CALENDAR_DATE ( 2022, 7, 7 ) ;
#238 = CC_DESIGN_PERSON_AND_ORGANIZATION_ASSIGNMENT ( #144, #96, ( #15 ) ) ;
#239 = SHAPE_DEFINITION_REPRESENTATION ( #250, #120 ) ;
#240 = AXIS2_PLACEMENT_3D ( 'NONE', #244, #197, #84 ) ;
#241 = APPLICATION_CONTEXT ( 'configuration controlled 3d designs of mechanical parts and assemblies' ) ;
#242 = VERTEX_POINT ( 'NONE', #64 ) ;
#243 = EDGE_CURVE ( 'NONE', #39, #139, #245, .T. ) ;
#244 = CARTESIAN_POINT ( 'NONE',  ( 0.000000000000000000, 0.000000000000000000, 0.000000000000000000 ) ) ;
#245 = LINE ( 'NONE', #132, #125 ) ;
#246 = APPROVAL ( #26, 'NEURÈENÝ' ) ;
#247 = CIRCLE ( 'NONE', #289, 0.2000000000000005107 ) ;
#248 = ORIENTED_EDGE ( 'NONE', *, *, #52, .T. ) ;
#249 =( NAMED_UNIT ( * ) SI_UNIT ( $, .STERADIAN. ) SOLID_ANGLE_UNIT ( ) );
#250 = PRODUCT_DEFINITION_SHAPE ( 'NONE', 'NONE',  #94 ) ;
#251 = APPLICATION_PROTOCOL_DEFINITION ( 'international standard', 'config_control_design', 1994, #241 ) ;
#252 = EDGE_CURVE ( 'NONE', #95, #295, #284, .T. ) ;
#253 = DIRECTION ( 'NONE',  ( -0.000000000000000000, -0.000000000000000000, -1.000000000000000000 ) ) ;
#254 = LINE ( 'NONE', #136, #218 ) ;
#255 = DIRECTION ( 'NONE',  ( -0.000000000000000000, -0.000000000000000000, -1.000000000000000000 ) ) ;
#256 = CIRCLE ( 'NONE', #29, 16.00000000000000000 ) ;
#257 = APPROVAL_PERSON_ORGANIZATION ( #80, #246, #57 ) ;
#258 = ORIENTED_EDGE ( 'NONE', *, *, #252, .T. ) ;
#259 = CARTESIAN_POINT ( 'NONE',  ( 0.000000000000000000, 0.000000000000000000, 10.20000000000000107 ) ) ;
#260 = AXIS2_PLACEMENT_3D ( 'NONE', #156, #21, #119 ) ;
#261 = ORIENTED_EDGE ( 'NONE', *, *, #215, .F. ) ;
#262 = PERSON_AND_ORGANIZATION ( #273, #133 ) ;
#263 = PERSON_AND_ORGANIZATION ( #273, #133 ) ;
#264 = EDGE_CURVE ( 'NONE', #140, #242, #148, .T. ) ;
#265 = CALENDAR_DATE ( 2022, 7, 7 ) ;
#266 = DATE_AND_TIME ( #99, #56 ) ;
#267 = DIRECTION ( 'NONE',  ( -0.000000000000000000, -0.000000000000000000, -1.000000000000000000 ) ) ;
#268 = CLOSED_SHELL ( 'NONE', ( #225, #164, #130, #196, #288, #297, #179, #235, #166 ) ) ;
#269 = AXIS2_PLACEMENT_3D ( 'NONE', #220, #30, #217 ) ;
#270 = CARTESIAN_POINT ( 'NONE',  ( -20.00000000000000000, 0.000000000000000000, 10.00000000000000000 ) ) ;
#271 = ORIENTED_EDGE ( 'NONE', *, *, #22, .T. ) ;
#272 = AXIS2_PLACEMENT_3D ( 'NONE', #69, #253, #93 ) ;
#273 = PERSON ( 'NEURÈENÝ', 'NEURÈENÝ', 'NEURÈENÝ', ('NEURÈENÝ'), ('NEURÈENÝ'), ('NEURÈENÝ') ) ;
#274 = CARTESIAN_POINT ( 'NONE',  ( 0.000000000000000000, 0.000000000000000000, 135.0000000000000000 ) ) ;
#275 = DIRECTION ( 'NONE',  ( 1.000000000000000000, 0.000000000000000000, 0.000000000000000000 ) ) ;
#276 = CC_DESIGN_DATE_AND_TIME_ASSIGNMENT ( #27, #82, ( #94 ) ) ;
#277 = PRODUCT ( '1506', '1506', '', ( #12 ) ) ;
#278 = FACE_OUTER_BOUND ( 'NONE', #152, .T. ) ;
#279 = CARTESIAN_POINT ( 'NONE',  ( -16.00000000000000000, 0.000000000000000000, 10.20000000000000107 ) ) ;
#280 = DIRECTION ( 'NONE',  ( 0.000000000000000000, 0.000000000000000000, 1.000000000000000000 ) ) ;
#281 = ORIENTED_EDGE ( 'NONE', *, *, #17, .F. ) ;
#282 = CARTESIAN_POINT ( 'NONE',  ( 0.000000000000000000, 0.000000000000000000, 10.20000000000000107 ) ) ;
#283 = AXIS2_PLACEMENT_3D ( 'NONE', #167, #267, #71 ) ;
#284 = CIRCLE ( 'NONE', #31, 0.1999999999999987899 ) ;
#285 = ORIENTED_EDGE ( 'NONE', *, *, #112, .T. ) ;
#286 = APPROVAL_DATE_TIME ( #266, #246 ) ;
#287 = ORIENTED_EDGE ( 'NONE', *, *, #306, .F. ) ;
#288 = ADVANCED_FACE ( 'NONE', ( #60, #68 ), #108, .T. ) ;
#289 = AXIS2_PLACEMENT_3D ( 'NONE', #176, #185, #301 ) ;
#290 = SECURITY_CLASSIFICATION_LEVEL ( 'unclassified' ) ;
#291 = CARTESIAN_POINT ( 'NONE',  ( 0.000000000000000000, 0.000000000000000000, 10.00000000000000000 ) ) ;
#292 = APPLICATION_PROTOCOL_DEFINITION ( 'international standard', 'config_control_design', 1994, #9 ) ;
#293 = VERTEX_POINT ( 'NONE', #127 ) ;
#294 = CC_DESIGN_DATE_AND_TIME_ASSIGNMENT ( #184, #54, ( #15 ) ) ;
#295 = VERTEX_POINT ( 'NONE', #202 ) ;
#296 = CARTESIAN_POINT ( 'NONE',  ( 0.000000000000000000, 0.000000000000000000, 135.0000000000000000 ) ) ;
#297 = ADVANCED_FACE ( 'NONE', ( #67 ), #134, .F. ) ;
#298 = DIRECTION ( 'NONE',  ( 0.000000000000000000, 0.000000000000000000, 1.000000000000000000 ) ) ;
#299 = DIRECTION ( 'NONE',  ( 0.000000000000000000, 0.000000000000000000, 1.000000000000000000 ) ) ;
#300 = PLANE ( 'NONE',  #110 ) ;
#301 = DIRECTION ( 'NONE',  ( 0.000000000000000000, 0.000000000000000000, -1.000000000000000000 ) ) ;
#302 = CARTESIAN_POINT ( 'NONE',  ( -20.00000000000000000, 0.000000000000000000, 0.000000000000000000 ) ) ;
#303 = ORIENTED_EDGE ( 'NONE', *, *, #243, .F. ) ;
#304 = AXIS2_PLACEMENT_3D ( 'NONE', #153, #298, #150 ) ;
#305 = ORIENTED_EDGE ( 'NONE', *, *, #264, .T. ) ;
#306 = EDGE_CURVE ( 'NONE', #39, #107, #1, .T. ) ;
#307 = PERSON_AND_ORGANIZATION ( #273, #133 ) ;
ENDSEC;
END-ISO-10303-21;
