ISO-10303-21;
HEADER;
FILE_DESCRIPTION (( 'STEP AP203' ),
    '1' );
FILE_NAME ('e6f6.STEP',
    '2022-07-07T09:54:03',
    ( '' ),
    ( '' ),
    'SwSTEP 2.0',
    'SolidWorks 2019',
    '' );
FILE_SCHEMA (( 'CONFIG_CONTROL_DESIGN' ));
ENDSEC;

DATA;
#1 = DIRECTION ( 'NONE',  ( 0.000000000000000000, 0.000000000000000000, 1.000000000000000000 ) ) ;
#2 = CIRCLE ( 'NONE', #287, 5.000000000000000888 ) ;
#3 = EDGE_CURVE ( 'NONE', #34, #153, #119, .T. ) ;
#4 = VERTEX_POINT ( 'NONE', #107 ) ;
#5 = ORIENTED_EDGE ( 'NONE', *, *, #295, .T. ) ;
#6 = COORDINATED_UNIVERSAL_TIME_OFFSET ( 1, 0, .AHEAD. ) ;
#7 = CC_DESIGN_SECURITY_CLASSIFICATION ( #155, ( #281 ) ) ;
#8 = EDGE_LOOP ( 'NONE', ( #303, #251 ) ) ;
#9 = CALENDAR_DATE ( 2022, 7, 7 ) ;
#10 = DATE_AND_TIME ( #9, #248 ) ;
#11 = CARTESIAN_POINT ( 'NONE',  ( 5.000000000000000888, 6.123233995736767268E-16, 5.199999999999982414 ) ) ;
#12 = CIRCLE ( 'NONE', #93, 5.000000000000000888 ) ;
#13 = ORIENTED_EDGE ( 'NONE', *, *, #193, .T. ) ;
#14 = DIRECTION ( 'NONE',  ( 1.000000000000000000, 0.000000000000000000, 0.000000000000000000 ) ) ;
#15 = ORIENTED_EDGE ( 'NONE', *, *, #166, .F. ) ;
#16 = EDGE_LOOP ( 'NONE', ( #32, #221 ) ) ;
#17 = APPROVAL_ROLE ( '' ) ;
#18 = DIRECTION ( 'NONE',  ( -0.000000000000000000, -0.000000000000000000, -1.000000000000000000 ) ) ;
#19 = DIRECTION ( 'NONE',  ( -0.000000000000000000, -0.000000000000000000, -1.000000000000000000 ) ) ;
#20 = AXIS2_PLACEMENT_3D ( 'NONE', #159, #253, #44 ) ;
#21 = VECTOR ( 'NONE', #140, 1000.000000000000000 ) ;
#22 = ORIENTED_EDGE ( 'NONE', *, *, #285, .F. ) ;
#23 = DIRECTION ( 'NONE',  ( -1.000000000000000000, 0.000000000000000000, 0.000000000000000000 ) ) ;
#24 = DIRECTION ( 'NONE',  ( 0.000000000000000000, 0.000000000000000000, 1.000000000000000000 ) ) ;
#25 = LOCAL_TIME ( 11, 54, 3.000000000000000000, #100 ) ;
#26 = DIRECTION ( 'NONE',  ( 1.000000000000000000, 0.000000000000000000, 0.000000000000000000 ) ) ;
#27 = CARTESIAN_POINT ( 'NONE',  ( 0.000000000000000000, 0.000000000000000000, 5.000000000000000000 ) ) ;
#28 = PRODUCT_RELATED_PRODUCT_CATEGORY ( 'detail', '', ( #37 ) ) ;
#29 = FACE_OUTER_BOUND ( 'NONE', #90, .T. ) ;
#30 = EDGE_CURVE ( 'NONE', #4, #153, #154, .T. ) ;
#31 = PERSON_AND_ORGANIZATION_ROLE ( 'classification_officer' ) ;
#32 = ORIENTED_EDGE ( 'NONE', *, *, #272, .F. ) ;
#33 = APPROVAL_DATE_TIME ( #10, #260 ) ;
#34 = VERTEX_POINT ( 'NONE', #42 ) ;
#35 = CIRCLE ( 'NONE', #201, 5.000000000000000888 ) ;
#36 = ADVANCED_FACE ( 'NONE', ( #133 ), #82, .T. ) ;
#37 = PRODUCT ( 'e6f6', 'e6f6', '', ( #226 ) ) ;
#38 = CARTESIAN_POINT ( 'NONE',  ( 0.000000000000000000, 0.000000000000000000, 5.000000000000000000 ) ) ;
#39 = LOCAL_TIME ( 11, 54, 3.000000000000000000, #252 ) ;
#40 = ORIENTED_EDGE ( 'NONE', *, *, #257, .T. ) ;
#41 = APPROVAL_STATUS ( 'not_yet_approved' ) ;
#42 = CARTESIAN_POINT ( 'NONE',  ( 5.200000000000001066, 0.000000000000000000, 4.999999999999991118 ) ) ;
#43 = DATE_AND_TIME ( #86, #39 ) ;
#44 = DIRECTION ( 'NONE',  ( -1.000000000000000000, 0.000000000000000000, 0.000000000000000000 ) ) ;
#45 = CARTESIAN_POINT ( 'NONE',  ( 8.000000000000000000, 9.797174393178825657E-16, 0.000000000000000000 ) ) ;
#46 = AXIS2_PLACEMENT_3D ( 'NONE', #122, #141, #71 ) ;
#47 = DIRECTION ( 'NONE',  ( 0.000000000000000000, 0.000000000000000000, 1.000000000000000000 ) ) ;
#48 = CARTESIAN_POINT ( 'NONE',  ( -8.000000000000000000, 0.000000000000000000, 5.000000000000000000 ) ) ;
#49 = APPLICATION_CONTEXT ( 'configuration controlled 3d designs of mechanical parts and assemblies' ) ;
#50 = CARTESIAN_POINT ( 'NONE',  ( 8.000000000000000000, 9.797174393178825657E-16, 5.000000000000000000 ) ) ;
#51 = CARTESIAN_POINT ( 'NONE',  ( -8.000000000000000000, 0.000000000000000000, 0.000000000000000000 ) ) ;
#52 = DIRECTION ( 'NONE',  ( 1.000000000000000000, 0.000000000000000000, 0.000000000000000000 ) ) ;
#53 = PRODUCT_DEFINITION_SHAPE ( 'NONE', 'NONE',  #289 ) ;
#54 = AXIS2_PLACEMENT_3D ( 'NONE', #70, #165, #259 ) ;
#55 = DATE_AND_TIME ( #264, #142 ) ;
#56 = ADVANCED_FACE ( 'NONE', ( #109, #198 ), #85, .T. ) ;
#57 = APPROVAL_STATUS ( 'not_yet_approved' ) ;
#58 = CLOSED_SHELL ( 'NONE', ( #138, #36, #98, #241, #56, #110, #76, #160, #144 ) ) ;
#59 = AXIS2_PLACEMENT_3D ( 'NONE', #27, #293, #223 ) ;
#60 = DIRECTION ( 'NONE',  ( 0.000000000000000000, 0.000000000000000000, 1.000000000000000000 ) ) ;
#61 = DIRECTION ( 'NONE',  ( -0.000000000000000000, -0.000000000000000000, -1.000000000000000000 ) ) ;
#62 = PERSON_AND_ORGANIZATION_ROLE ( 'design_owner' ) ;
#63 = LOCAL_TIME ( 11, 54, 3.000000000000000000, #6 ) ;
#64 = FACE_OUTER_BOUND ( 'NONE', #216, .T. ) ;
#65 =( NAMED_UNIT ( * ) SI_UNIT ( $, .STERADIAN. ) SOLID_ANGLE_UNIT ( ) );
#66 = CYLINDRICAL_SURFACE ( 'NONE', #20, 8.000000000000000000 ) ;
#67 = ORIENTED_EDGE ( 'NONE', *, *, #279, .T. ) ;
#68 =( GEOMETRIC_REPRESENTATION_CONTEXT ( 3 ) GLOBAL_UNCERTAINTY_ASSIGNED_CONTEXT ( ( #209 ) ) GLOBAL_UNIT_ASSIGNED_CONTEXT ( ( #250, #229, #65 ) ) REPRESENTATION_CONTEXT ( 'NONE', 'WORKASPACE' ) );
#69 = FACE_OUTER_BOUND ( 'NONE', #300, .T. ) ;
#70 = CARTESIAN_POINT ( 'NONE',  ( 5.200000000000001066, 0.000000000000000000, 5.199999999999982414 ) ) ;
#71 = DIRECTION ( 'NONE',  ( 1.000000000000000000, 0.000000000000000000, 0.000000000000000000 ) ) ;
#72 = VECTOR ( 'NONE', #19, 1000.000000000000000 ) ;
#73 = CC_DESIGN_PERSON_AND_ORGANIZATION_ASSIGNMENT ( #192, #288, ( #281 ) ) ;
#74 = CC_DESIGN_APPROVAL ( #88, ( #289 ) ) ;
#75 = ORIENTED_EDGE ( 'NONE', *, *, #30, .F. ) ;
#76 = ADVANCED_FACE ( 'NONE', ( #64 ), #158, .T. ) ;
#77 = ORIENTED_EDGE ( 'NONE', *, *, #30, .T. ) ;
#78 = DATE_TIME_ROLE ( 'creation_date' ) ;
#79 = VECTOR ( 'NONE', #123, 1000.000000000000000 ) ;
#80 = EDGE_CURVE ( 'NONE', #108, #290, #127, .T. ) ;
#81 = DIRECTION ( 'NONE',  ( 0.000000000000000000, 0.000000000000000000, 1.000000000000000000 ) ) ;
#82 = CYLINDRICAL_SURFACE ( 'NONE', #267, 5.000000000000000888 ) ;
#83 = DIRECTION ( 'NONE',  ( 1.000000000000000000, 0.000000000000000000, 0.000000000000000000 ) ) ;
#84 = APPLICATION_CONTEXT ( 'configuration controlled 3d designs of mechanical parts and assemblies' ) ;
#85 = PLANE ( 'NONE',  #220 ) ;
#86 = CALENDAR_DATE ( 2022, 7, 7 ) ;
#87 = AXIS2_PLACEMENT_3D ( 'NONE', #275, #247, #136 ) ;
#88 = APPROVAL ( #41, 'NEURÈENÝ' ) ;
#89 = DIRECTION ( 'NONE',  ( 0.000000000000000000, 0.000000000000000000, 1.000000000000000000 ) ) ;
#90 = EDGE_LOOP ( 'NONE', ( #125, #97 ) ) ;
#91 = CARTESIAN_POINT ( 'NONE',  ( 0.000000000000000000, 0.000000000000000000, 635.0000000000000000 ) ) ;
#92 = EDGE_CURVE ( 'NONE', #150, #225, #35, .T. ) ;
#93 = AXIS2_PLACEMENT_3D ( 'NONE', #210, #1, #232 ) ;
#94 = CARTESIAN_POINT ( 'NONE',  ( -5.200000000000001066, 6.368163355566237368E-16, 4.999999999999991118 ) ) ;
#95 = DIRECTION ( 'NONE',  ( 0.000000000000000000, 0.000000000000000000, 1.000000000000000000 ) ) ;
#96 = CARTESIAN_POINT ( 'NONE',  ( -5.000000000000000888, 0.000000000000000000, 635.0000000000000000 ) ) ;
#97 = ORIENTED_EDGE ( 'NONE', *, *, #285, .T. ) ;
#98 = ADVANCED_FACE ( 'NONE', ( #179 ), #66, .T. ) ;
#99 = ORIENTED_EDGE ( 'NONE', *, *, #218, .T. ) ;
#100 = COORDINATED_UNIVERSAL_TIME_OFFSET ( 1, 0, .AHEAD. ) ;
#101 = CC_DESIGN_APPROVAL ( #146, ( #155 ) ) ;
#102 = ORIENTED_EDGE ( 'NONE', *, *, #132, .T. ) ;
#103 = CALENDAR_DATE ( 2022, 7, 7 ) ;
#104 = AXIS2_PLACEMENT_3D ( 'NONE', #249, #246, #278 ) ;
#105 = CIRCLE ( 'NONE', #46, 8.000000000000000000 ) ;
#106 = APPROVAL_PERSON_ORGANIZATION ( #131, #88, #17 ) ;
#107 = CARTESIAN_POINT ( 'NONE',  ( -5.000000000000000888, 0.000000000000000000, 5.199999999999982414 ) ) ;
#108 = VERTEX_POINT ( 'NONE', #207 ) ;
#109 = FACE_BOUND ( 'NONE', #8, .T. ) ;
#110 = ADVANCED_FACE ( 'NONE', ( #145 ), #307, .F. ) ;
#111 = DIRECTION ( 'NONE',  ( 1.000000000000000000, 0.000000000000000000, 0.000000000000000000 ) ) ;
#112 = APPROVAL_DATE_TIME ( #43, #88 ) ;
#113 = CIRCLE ( 'NONE', #129, 5.200000000000001066 ) ;
#114 = ORIENTED_EDGE ( 'NONE', *, *, #116, .F. ) ;
#115 = CARTESIAN_POINT ( 'NONE',  ( 0.000000000000000000, 0.000000000000000000, 0.000000000000000000 ) ) ;
#116 = EDGE_CURVE ( 'NONE', #150, #4, #184, .T. ) ;
#117 = ORIENTED_EDGE ( 'NONE', *, *, #193, .F. ) ;
#118 = DIRECTION ( 'NONE',  ( 1.000000000000000000, 0.000000000000000000, -0.000000000000000000 ) ) ;
#119 = CIRCLE ( 'NONE', #271, 5.200000000000001066 ) ;
#120 = CC_DESIGN_APPROVAL ( #260, ( #281 ) ) ;
#121 = CARTESIAN_POINT ( 'NONE',  ( 0.000000000000000000, 0.000000000000000000, 635.0000000000000000 ) ) ;
#122 = CARTESIAN_POINT ( 'NONE',  ( 0.000000000000000000, 0.000000000000000000, 0.000000000000000000 ) ) ;
#123 = DIRECTION ( 'NONE',  ( -0.000000000000000000, -0.000000000000000000, -1.000000000000000000 ) ) ;
#124 = AXIS2_PLACEMENT_3D ( 'NONE', #301, #60, #195 ) ;
#125 = ORIENTED_EDGE ( 'NONE', *, *, #92, .T. ) ;
#126 = SECURITY_CLASSIFICATION_LEVEL ( 'unclassified' ) ;
#127 = CIRCLE ( 'NONE', #298, 8.000000000000000000 ) ;
#128 = EDGE_LOOP ( 'NONE', ( #269, #177, #242, #156 ) ) ;
#129 = AXIS2_PLACEMENT_3D ( 'NONE', #262, #284, #52 ) ;
#130 = CARTESIAN_POINT ( 'NONE',  ( 0.000000000000000000, 0.000000000000000000, 5.000000000000000000 ) ) ;
#131 = PERSON_AND_ORGANIZATION ( #224, #245 ) ;
#132 = EDGE_CURVE ( 'NONE', #290, #294, #237, .T. ) ;
#133 = FACE_OUTER_BOUND ( 'NONE', #196, .T. ) ;
#134 = DIRECTION ( 'NONE',  ( 1.000000000000000000, 0.000000000000000000, 0.000000000000000000 ) ) ;
#135 = ORIENTED_EDGE ( 'NONE', *, *, #257, .F. ) ;
#136 = DIRECTION ( 'NONE',  ( 1.000000000000000000, 0.000000000000000000, 0.000000000000000000 ) ) ;
#137 = ORIENTED_EDGE ( 'NONE', *, *, #3, .F. ) ;
#138 = ADVANCED_FACE ( 'NONE', ( #306 ), #235, .F. ) ;
#139 = ORIENTED_EDGE ( 'NONE', *, *, #279, .F. ) ;
#140 = DIRECTION ( 'NONE',  ( -0.000000000000000000, -0.000000000000000000, -1.000000000000000000 ) ) ;
#141 = DIRECTION ( 'NONE',  ( 0.000000000000000000, 0.000000000000000000, 1.000000000000000000 ) ) ;
#142 = LOCAL_TIME ( 11, 54, 3.000000000000000000, #292 ) ;
#143 = FACE_OUTER_BOUND ( 'NONE', #128, .T. ) ;
#144 = ADVANCED_FACE ( 'NONE', ( #69 ), #164, .F. ) ;
#145 = FACE_OUTER_BOUND ( 'NONE', #16, .T. ) ;
#146 = APPROVAL ( #151, 'NEURÈENÝ' ) ;
#147 = CC_DESIGN_PERSON_AND_ORGANIZATION_ASSIGNMENT ( #199, #62, ( #37 ) ) ;
#148 = APPROVAL_ROLE ( '' ) ;
#149 = SHAPE_DEFINITION_REPRESENTATION ( #53, #181 ) ;
#150 = VERTEX_POINT ( 'NONE', #211 ) ;
#151 = APPROVAL_STATUS ( 'not_yet_approved' ) ;
#152 = AXIS2_PLACEMENT_3D ( 'NONE', #261, #24, #286 ) ;
#153 = VERTEX_POINT ( 'NONE', #94 ) ;
#154 = CIRCLE ( 'NONE', #104, 0.1999999999999996503 ) ;
#155 = SECURITY_CLASSIFICATION ( '', '', #126 ) ;
#156 = ORIENTED_EDGE ( 'NONE', *, *, #272, .T. ) ;
#157 = APPLICATION_PROTOCOL_DEFINITION ( 'international standard', 'config_control_design', 1994, #49 ) ;
#158 = CYLINDRICAL_SURFACE ( 'NONE', #233, 5.000000000000000888 ) ;
#159 = CARTESIAN_POINT ( 'NONE',  ( 0.000000000000000000, 0.000000000000000000, 5.000000000000000000 ) ) ;
#160 = ADVANCED_FACE ( 'NONE', ( #29 ), #258, .T. ) ;
#161 = DESIGN_CONTEXT ( 'detailed design', #49, 'design' ) ;
#162 = EDGE_LOOP ( 'NONE', ( #135, #102, #99, #15 ) ) ;
#163 = CC_DESIGN_PERSON_AND_ORGANIZATION_ASSIGNMENT ( #190, #31, ( #155 ) ) ;
#164 = TOROIDAL_SURFACE ( 'NONE', #280, 5.200000000000001066, 0.2000000000000000111 ) ;
#165 = DIRECTION ( 'NONE',  ( 0.000000000000000000, -1.000000000000000000, 0.000000000000000000 ) ) ;
#166 = EDGE_CURVE ( 'NONE', #108, #219, #168, .T. ) ;
#167 = CYLINDRICAL_SURFACE ( 'NONE', #59, 8.000000000000000000 ) ;
#168 = LINE ( 'NONE', #48, #21 ) ;
#169 = PERSON_AND_ORGANIZATION ( #224, #245 ) ;
#170 = CIRCLE ( 'NONE', #54, 0.1999999999999996503 ) ;
#171 = ORIENTED_EDGE ( 'NONE', *, *, #188, .T. ) ;
#172 = ORIENTED_EDGE ( 'NONE', *, *, #185, .F. ) ;
#173 = EDGE_LOOP ( 'NONE', ( #302, #40 ) ) ;
#174 = CIRCLE ( 'NONE', #124, 5.000000000000000888 ) ;
#175 = DIRECTION ( 'NONE',  ( -1.000000000000000000, 0.000000000000000000, 0.000000000000000000 ) ) ;
#176 = CARTESIAN_POINT ( 'NONE',  ( 0.000000000000000000, 0.000000000000000000, 635.0000000000000000 ) ) ;
#177 = ORIENTED_EDGE ( 'NONE', *, *, #80, .F. ) ;
#178 = PERSON_AND_ORGANIZATION ( #224, #245 ) ;
#179 = FACE_OUTER_BOUND ( 'NONE', #162, .T. ) ;
#180 = DIRECTION ( 'NONE',  ( 0.000000000000000000, 0.000000000000000000, 1.000000000000000000 ) ) ;
#181 = ADVANCED_BREP_SHAPE_REPRESENTATION ( 'e6f6', ( #304, #236 ), #68 ) ;
#182 = ORIENTED_EDGE ( 'NONE', *, *, #188, .F. ) ;
#183 = DIRECTION ( 'NONE',  ( 1.000000000000000000, 0.000000000000000000, 0.000000000000000000 ) ) ;
#184 = LINE ( 'NONE', #96, #213 ) ;
#185 = EDGE_CURVE ( 'NONE', #153, #34, #113, .T. ) ;
#186 = DIRECTION ( 'NONE',  ( 0.000000000000000000, 0.000000000000000000, 1.000000000000000000 ) ) ;
#187 = CARTESIAN_POINT ( 'NONE',  ( 0.000000000000000000, 0.000000000000000000, 5.199999999999982414 ) ) ;
#188 = EDGE_CURVE ( 'NONE', #4, #296, #12, .T. ) ;
#189 = CALENDAR_DATE ( 2022, 7, 7 ) ;
#190 = PERSON_AND_ORGANIZATION ( #224, #245 ) ;
#191 = APPROVAL_PERSON_ORGANIZATION ( #169, #146, #215 ) ;
#192 = PERSON_AND_ORGANIZATION ( #224, #245 ) ;
#193 = EDGE_CURVE ( 'NONE', #296, #34, #170, .T. ) ;
#194 = CC_DESIGN_DATE_AND_TIME_ASSIGNMENT ( #217, #239, ( #155 ) ) ;
#195 = DIRECTION ( 'NONE',  ( 1.000000000000000000, 0.000000000000000000, 0.000000000000000000 ) ) ;
#196 = EDGE_LOOP ( 'NONE', ( #22, #67, #5, #114 ) ) ;
#197 = LINE ( 'NONE', #297, #72 ) ;
#198 = FACE_OUTER_BOUND ( 'NONE', #173, .T. ) ;
#199 = PERSON_AND_ORGANIZATION ( #224, #245 ) ;
#200 = CC_DESIGN_PERSON_AND_ORGANIZATION_ASSIGNMENT ( #240, #266, ( #281 ) ) ;
#201 = AXIS2_PLACEMENT_3D ( 'NONE', #91, #202, #183 ) ;
#202 = DIRECTION ( 'NONE',  ( 0.000000000000000000, 0.000000000000000000, 1.000000000000000000 ) ) ;
#203 = PERSON_AND_ORGANIZATION_ROLE ( 'creator' ) ;
#204 = ORIENTED_EDGE ( 'NONE', *, *, #295, .F. ) ;
#205 = APPLICATION_PROTOCOL_DEFINITION ( 'international standard', 'config_control_design', 1994, #84 ) ;
#206 = DIRECTION ( 'NONE',  ( 1.000000000000000000, 0.000000000000000000, 0.000000000000000000 ) ) ;
#207 = CARTESIAN_POINT ( 'NONE',  ( -8.000000000000000000, 0.000000000000000000, 5.000000000000000000 ) ) ;
#208 = APPROVAL_PERSON_ORGANIZATION ( #291, #260, #148 ) ;
#209 = UNCERTAINTY_MEASURE_WITH_UNIT (LENGTH_MEASURE( 1.000000000000000082E-05 ), #250, 'distance_accuracy_value', 'NONE');
#210 = CARTESIAN_POINT ( 'NONE',  ( 0.000000000000000000, 0.000000000000000000, 5.199999999999982414 ) ) ;
#211 = CARTESIAN_POINT ( 'NONE',  ( -5.000000000000000888, 0.000000000000000000, 635.0000000000000000 ) ) ;
#212 = DIRECTION ( 'NONE',  ( 0.000000000000000000, 0.000000000000000000, 1.000000000000000000 ) ) ;
#213 = VECTOR ( 'NONE', #283, 1000.000000000000000 ) ;
#214 = AXIS2_PLACEMENT_3D ( 'NONE', #187, #95, #238 ) ;
#215 = APPROVAL_ROLE ( '' ) ;
#216 = EDGE_LOOP ( 'NONE', ( #139, #265, #222, #171 ) ) ;
#217 = DATE_AND_TIME ( #189, #25 ) ;
#218 = EDGE_CURVE ( 'NONE', #294, #219, #105, .T. ) ;
#219 = VERTEX_POINT ( 'NONE', #51 ) ;
#220 = AXIS2_PLACEMENT_3D ( 'NONE', #38, #47, #274 ) ;
#221 = ORIENTED_EDGE ( 'NONE', *, *, #218, .F. ) ;
#222 = ORIENTED_EDGE ( 'NONE', *, *, #116, .T. ) ;
#223 = DIRECTION ( 'NONE',  ( -1.000000000000000000, 0.000000000000000000, 0.000000000000000000 ) ) ;
#224 = PERSON ( 'NEURÈENÝ', 'NEURÈENÝ', 'NEURÈENÝ', ('NEURÈENÝ'), ('NEURÈENÝ'), ('NEURÈENÝ') ) ;
#225 = VERTEX_POINT ( 'NONE', #234 ) ;
#226 = MECHANICAL_CONTEXT ( 'NONE', #84, 'mechanical' ) ;
#227 = CC_DESIGN_DATE_AND_TIME_ASSIGNMENT ( #55, #78, ( #289 ) ) ;
#228 = EDGE_LOOP ( 'NONE', ( #182, #77, #137, #117 ) ) ;
#229 =( NAMED_UNIT ( * ) PLANE_ANGLE_UNIT ( ) SI_UNIT ( $, .RADIAN. ) );
#230 = CARTESIAN_POINT ( 'NONE',  ( 0.000000000000000000, 0.000000000000000000, 635.0000000000000000 ) ) ;
#231 = CC_DESIGN_PERSON_AND_ORGANIZATION_ASSIGNMENT ( #178, #203, ( #289 ) ) ;
#232 = DIRECTION ( 'NONE',  ( 1.000000000000000000, 0.000000000000000000, 0.000000000000000000 ) ) ;
#233 = AXIS2_PLACEMENT_3D ( 'NONE', #230, #18, #23 ) ;
#234 = CARTESIAN_POINT ( 'NONE',  ( 5.000000000000000888, 6.123233995736767268E-16, 635.0000000000000000 ) ) ;
#235 = TOROIDAL_SURFACE ( 'NONE', #214, 5.200000000000001066, 0.2000000000000000111 ) ;
#236 = AXIS2_PLACEMENT_3D ( 'NONE', #115, #254, #14 ) ;
#237 = LINE ( 'NONE', #50, #79 ) ;
#238 = DIRECTION ( 'NONE',  ( 1.000000000000000000, 0.000000000000000000, 0.000000000000000000 ) ) ;
#239 = DATE_TIME_ROLE ( 'classification_date' ) ;
#240 = PERSON_AND_ORGANIZATION ( #224, #245 ) ;
#241 = ADVANCED_FACE ( 'NONE', ( #143 ), #167, .T. ) ;
#242 = ORIENTED_EDGE ( 'NONE', *, *, #166, .T. ) ;
#243 = APPROVAL_DATE_TIME ( #244, #146 ) ;
#244 = DATE_AND_TIME ( #103, #63 ) ;
#245 = ORGANIZATION ( 'NEURÈENÝ', 'NEURÈENÝ', '' ) ;
#246 = DIRECTION ( 'NONE',  ( 1.224646799147353207E-16, 1.000000000000000000, -0.000000000000000000 ) ) ;
#247 = DIRECTION ( 'NONE',  ( 0.000000000000000000, 0.000000000000000000, 1.000000000000000000 ) ) ;
#248 = LOCAL_TIME ( 11, 54, 3.000000000000000000, #263 ) ;
#249 = CARTESIAN_POINT ( 'NONE',  ( -5.200000000000001066, 6.368163355566237368E-16, 5.199999999999982414 ) ) ;
#250 =( LENGTH_UNIT ( ) NAMED_UNIT ( * ) SI_UNIT ( .MILLI., .METRE. ) );
#251 = ORIENTED_EDGE ( 'NONE', *, *, #185, .T. ) ;
#252 = COORDINATED_UNIVERSAL_TIME_OFFSET ( 1, 0, .AHEAD. ) ;
#253 = DIRECTION ( 'NONE',  ( -0.000000000000000000, -0.000000000000000000, -1.000000000000000000 ) ) ;
#254 = DIRECTION ( 'NONE',  ( 0.000000000000000000, 0.000000000000000000, 1.000000000000000000 ) ) ;
#255 = CIRCLE ( 'NONE', #87, 8.000000000000000000 ) ;
#256 = CARTESIAN_POINT ( 'NONE',  ( 0.000000000000000000, 0.000000000000000000, 635.0000000000000000 ) ) ;
#257 = EDGE_CURVE ( 'NONE', #290, #108, #268, .T. ) ;
#258 = PLANE ( 'NONE',  #299 ) ;
#259 = DIRECTION ( 'NONE',  ( 0.000000000000000000, 0.000000000000000000, -1.000000000000000000 ) ) ;
#260 = APPROVAL ( #57, 'NEURÈENÝ' ) ;
#261 = CARTESIAN_POINT ( 'NONE',  ( 0.000000000000000000, 0.000000000000000000, 0.000000000000000000 ) ) ;
#262 = CARTESIAN_POINT ( 'NONE',  ( 0.000000000000000000, 0.000000000000000000, 5.000000000000000000 ) ) ;
#263 = COORDINATED_UNIVERSAL_TIME_OFFSET ( 1, 0, .AHEAD. ) ;
#264 = CALENDAR_DATE ( 2022, 7, 7 ) ;
#265 = ORIENTED_EDGE ( 'NONE', *, *, #92, .F. ) ;
#266 = PERSON_AND_ORGANIZATION_ROLE ( 'creator' ) ;
#267 = AXIS2_PLACEMENT_3D ( 'NONE', #256, #276, #175 ) ;
#268 = CIRCLE ( 'NONE', #273, 8.000000000000000000 ) ;
#269 = ORIENTED_EDGE ( 'NONE', *, *, #132, .F. ) ;
#270 = CARTESIAN_POINT ( 'NONE',  ( 8.000000000000000000, 9.797174393178825657E-16, 5.000000000000000000 ) ) ;
#271 = AXIS2_PLACEMENT_3D ( 'NONE', #282, #61, #206 ) ;
#272 = EDGE_CURVE ( 'NONE', #219, #294, #255, .T. ) ;
#273 = AXIS2_PLACEMENT_3D ( 'NONE', #277, #180, #83 ) ;
#274 = DIRECTION ( 'NONE',  ( 1.000000000000000000, 0.000000000000000000, -0.000000000000000000 ) ) ;
#275 = CARTESIAN_POINT ( 'NONE',  ( 0.000000000000000000, 0.000000000000000000, 0.000000000000000000 ) ) ;
#276 = DIRECTION ( 'NONE',  ( -0.000000000000000000, -0.000000000000000000, -1.000000000000000000 ) ) ;
#277 = CARTESIAN_POINT ( 'NONE',  ( 0.000000000000000000, 0.000000000000000000, 5.000000000000000000 ) ) ;
#278 = DIRECTION ( 'NONE',  ( -1.000000000000000000, 1.224646799147353454E-16, 0.000000000000000000 ) ) ;
#279 = EDGE_CURVE ( 'NONE', #225, #296, #197, .T. ) ;
#280 = AXIS2_PLACEMENT_3D ( 'NONE', #305, #186, #26 ) ;
#281 = PRODUCT_DEFINITION_FORMATION_WITH_SPECIFIED_SOURCE ( 'LIBOVOLNÝ', '', #37, .NOT_KNOWN. ) ;
#282 = CARTESIAN_POINT ( 'NONE',  ( 0.000000000000000000, 0.000000000000000000, 5.000000000000000000 ) ) ;
#283 = DIRECTION ( 'NONE',  ( -0.000000000000000000, -0.000000000000000000, -1.000000000000000000 ) ) ;
#284 = DIRECTION ( 'NONE',  ( -0.000000000000000000, -0.000000000000000000, -1.000000000000000000 ) ) ;
#285 = EDGE_CURVE ( 'NONE', #225, #150, #2, .T. ) ;
#286 = DIRECTION ( 'NONE',  ( 1.000000000000000000, 0.000000000000000000, -0.000000000000000000 ) ) ;
#287 = AXIS2_PLACEMENT_3D ( 'NONE', #176, #81, #134 ) ;
#288 = PERSON_AND_ORGANIZATION_ROLE ( 'design_supplier' ) ;
#289 = PRODUCT_DEFINITION ( 'NEZNÁMÝ', '', #281, #161 ) ;
#290 = VERTEX_POINT ( 'NONE', #270 ) ;
#291 = PERSON_AND_ORGANIZATION ( #224, #245 ) ;
#292 = COORDINATED_UNIVERSAL_TIME_OFFSET ( 1, 0, .AHEAD. ) ;
#293 = DIRECTION ( 'NONE',  ( -0.000000000000000000, -0.000000000000000000, -1.000000000000000000 ) ) ;
#294 = VERTEX_POINT ( 'NONE', #45 ) ;
#295 = EDGE_CURVE ( 'NONE', #296, #4, #174, .T. ) ;
#296 = VERTEX_POINT ( 'NONE', #11 ) ;
#297 = CARTESIAN_POINT ( 'NONE',  ( 5.000000000000000888, 6.123233995736767268E-16, 635.0000000000000000 ) ) ;
#298 = AXIS2_PLACEMENT_3D ( 'NONE', #130, #89, #111 ) ;
#299 = AXIS2_PLACEMENT_3D ( 'NONE', #121, #212, #118 ) ;
#300 = EDGE_LOOP ( 'NONE', ( #75, #204, #13, #172 ) ) ;
#301 = CARTESIAN_POINT ( 'NONE',  ( 0.000000000000000000, 0.000000000000000000, 5.199999999999982414 ) ) ;
#302 = ORIENTED_EDGE ( 'NONE', *, *, #80, .T. ) ;
#303 = ORIENTED_EDGE ( 'NONE', *, *, #3, .T. ) ;
#304 = MANIFOLD_SOLID_BREP ( 'Zaoblit1', #58 ) ;
#305 = CARTESIAN_POINT ( 'NONE',  ( 0.000000000000000000, 0.000000000000000000, 5.199999999999982414 ) ) ;
#306 = FACE_OUTER_BOUND ( 'NONE', #228, .T. ) ;
#307 = PLANE ( 'NONE',  #152 ) ;
ENDSEC;
END-ISO-10303-21;
