ISO-10303-21;
HEADER;
FILE_DESCRIPTION (( 'STEP AP203' ),
    '1' );
FILE_NAME ('675b.STEP',
    '2023-02-12T12:34:07',
    ( '' ),
    ( '' ),
    'SwSTEP 2.0',
    'SolidWorks 2019',
    '' );
FILE_SCHEMA (( 'CONFIG_CONTROL_DESIGN' ));
ENDSEC;

DATA;
#1 = ORIENTED_EDGE ( 'NONE', *, *, #207, .T. ) ;
#2 = ORIENTED_EDGE ( 'NONE', *, *, #103, .F. ) ;
#3 = ORIENTED_EDGE ( 'NONE', *, *, #175, .F. ) ;
#4 = DIRECTION ( 'NONE',  ( -0.000000000000000000, -0.000000000000000000, -1.000000000000000000 ) ) ;
#5 = CARTESIAN_POINT ( 'NONE',  ( 0.000000000000000000, 0.000000000000000000, 125.0000000000000000 ) ) ;
#6 = DIRECTION ( 'NONE',  ( 0.000000000000000000, 0.000000000000000000, 1.000000000000000000 ) ) ;
#7 = CARTESIAN_POINT ( 'NONE',  ( 4.000000000000000000, 4.898587196589412829E-16, 3.000000000000000000 ) ) ;
#8 = CARTESIAN_POINT ( 'NONE',  ( 0.000000000000000000, 0.000000000000000000, 3.000000000000000000 ) ) ;
#9 = CALENDAR_DATE ( 2023, 12, 2 ) ;
#10 = COORDINATED_UNIVERSAL_TIME_OFFSET ( 1, 0, .AHEAD. ) ;
#11 = DIRECTION ( 'NONE',  ( 0.000000000000000000, 0.000000000000000000, 1.000000000000000000 ) ) ;
#12 = APPROVAL_STATUS ( 'not_yet_approved' ) ;
#13 = DATE_TIME_ROLE ( 'creation_date' ) ;
#14 = PRODUCT ( '675b', '675b', '', ( #211 ) ) ;
#15 = ORIENTED_EDGE ( 'NONE', *, *, #16, .T. ) ;
#16 = EDGE_CURVE ( 'NONE', #107, #241, #63, .T. ) ;
#17 = DIRECTION ( 'NONE',  ( 1.000000000000000000, 0.000000000000000000, 0.000000000000000000 ) ) ;
#18 = EDGE_LOOP ( 'NONE', ( #109, #2 ) ) ;
#19 = CARTESIAN_POINT ( 'NONE',  ( 0.000000000000000000, 0.000000000000000000, 3.000000000000000000 ) ) ;
#20 =( GEOMETRIC_REPRESENTATION_CONTEXT ( 3 ) GLOBAL_UNCERTAINTY_ASSIGNED_CONTEXT ( ( #102 ) ) GLOBAL_UNIT_ASSIGNED_CONTEXT ( ( #56, #29, #52 ) ) REPRESENTATION_CONTEXT ( 'NONE', 'WORKASPACE' ) );
#21 = FACE_OUTER_BOUND ( 'NONE', #141, .T. ) ;
#22 = DIRECTION ( 'NONE',  ( 1.000000000000000000, 0.000000000000000000, 0.000000000000000000 ) ) ;
#23 = EDGE_CURVE ( 'NONE', #82, #242, #37, .T. ) ;
#24 = DIRECTION ( 'NONE',  ( -0.000000000000000000, -0.000000000000000000, -1.000000000000000000 ) ) ;
#25 = FACE_OUTER_BOUND ( 'NONE', #84, .T. ) ;
#26 = DIRECTION ( 'NONE',  ( -0.000000000000000000, -0.000000000000000000, -1.000000000000000000 ) ) ;
#27 = SHAPE_DEFINITION_REPRESENTATION ( #162, #40 ) ;
#28 = ADVANCED_FACE ( 'NONE', ( #214 ), #108, .T. ) ;
#29 =( NAMED_UNIT ( * ) PLANE_ANGLE_UNIT ( ) SI_UNIT ( $, .RADIAN. ) );
#30 = AXIS2_PLACEMENT_3D ( 'NONE', #8, #111, #48 ) ;
#31 = PERSON_AND_ORGANIZATION ( #240, #226 ) ;
#32 = CIRCLE ( 'NONE', #53, 4.000000000000000000 ) ;
#33 = APPROVAL_ROLE ( '' ) ;
#34 = AXIS2_PLACEMENT_3D ( 'NONE', #174, #11, #178 ) ;
#35 = APPROVAL_STATUS ( 'not_yet_approved' ) ;
#36 = CIRCLE ( 'NONE', #222, 2.250000000000000000 ) ;
#37 = LINE ( 'NONE', #219, #232 ) ;
#38 = CARTESIAN_POINT ( 'NONE',  ( 0.000000000000000000, 0.000000000000000000, 125.0000000000000000 ) ) ;
#39 = EDGE_CURVE ( 'NONE', #42, #242, #110, .T. ) ;
#40 = ADVANCED_BREP_SHAPE_REPRESENTATION ( '675b', ( #86, #34 ), #20 ) ;
#41 = CYLINDRICAL_SURFACE ( 'NONE', #176, 2.250000000000000000 ) ;
#42 = VERTEX_POINT ( 'NONE', #105 ) ;
#43 = ORIENTED_EDGE ( 'NONE', *, *, #236, .T. ) ;
#44 = CARTESIAN_POINT ( 'NONE',  ( 0.000000000000000000, 0.000000000000000000, 0.000000000000000000 ) ) ;
#45 = AXIS2_PLACEMENT_3D ( 'NONE', #203, #26, #150 ) ;
#46 = CARTESIAN_POINT ( 'NONE',  ( 2.250000000000000000, 2.755455298081543792E-16, 3.000000000000000000 ) ) ;
#47 = CARTESIAN_POINT ( 'NONE',  ( 0.000000000000000000, 0.000000000000000000, 125.0000000000000000 ) ) ;
#48 = DIRECTION ( 'NONE',  ( 1.000000000000000000, 0.000000000000000000, -0.000000000000000000 ) ) ;
#49 = LOCAL_TIME ( 13, 34, 7.000000000000000000, #10 ) ;
#50 = LINE ( 'NONE', #208, #189 ) ;
#51 = CIRCLE ( 'NONE', #130, 2.250000000000000000 ) ;
#52 =( NAMED_UNIT ( * ) SI_UNIT ( $, .STERADIAN. ) SOLID_ANGLE_UNIT ( ) );
#53 = AXIS2_PLACEMENT_3D ( 'NONE', #188, #248, #68 ) ;
#54 = PERSON_AND_ORGANIZATION_ROLE ( 'design_supplier' ) ;
#55 = COORDINATED_UNIVERSAL_TIME_OFFSET ( 1, 0, .AHEAD. ) ;
#56 =( LENGTH_UNIT ( ) NAMED_UNIT ( * ) SI_UNIT ( .MILLI., .METRE. ) );
#57 = APPROVAL_PERSON_ORGANIZATION ( #255, #81, #155 ) ;
#58 = ORIENTED_EDGE ( 'NONE', *, *, #225, .F. ) ;
#59 = DIRECTION ( 'NONE',  ( 1.000000000000000000, 0.000000000000000000, 0.000000000000000000 ) ) ;
#60 = VERTEX_POINT ( 'NONE', #239 ) ;
#61 = EDGE_LOOP ( 'NONE', ( #218, #76, #78, #3 ) ) ;
#62 = CC_DESIGN_PERSON_AND_ORGANIZATION_ASSIGNMENT ( #134, #233, ( #124 ) ) ;
#63 = CIRCLE ( 'NONE', #79, 4.000000000000000000 ) ;
#64 = EDGE_LOOP ( 'NONE', ( #200, #125 ) ) ;
#65 = CARTESIAN_POINT ( 'NONE',  ( 0.000000000000000000, 0.000000000000000000, 125.0000000000000000 ) ) ;
#66 = DIRECTION ( 'NONE',  ( 1.000000000000000000, 0.000000000000000000, 0.000000000000000000 ) ) ;
#67 = CARTESIAN_POINT ( 'NONE',  ( 0.000000000000000000, 0.000000000000000000, 3.000000000000000000 ) ) ;
#68 = DIRECTION ( 'NONE',  ( 1.000000000000000000, 0.000000000000000000, 0.000000000000000000 ) ) ;
#69 = CARTESIAN_POINT ( 'NONE',  ( 4.000000000000000000, 4.898587196589412829E-16, 0.000000000000000000 ) ) ;
#70 = ADVANCED_FACE ( 'NONE', ( #216 ), #41, .T. ) ;
#71 = CALENDAR_DATE ( 2023, 12, 2 ) ;
#72 = CALENDAR_DATE ( 2023, 12, 2 ) ;
#73 = CC_DESIGN_DATE_AND_TIME_ASSIGNMENT ( #99, #13, ( #124 ) ) ;
#74 = LOCAL_TIME ( 13, 34, 7.000000000000000000, #177 ) ;
#75 = PERSON_AND_ORGANIZATION ( #240, #226 ) ;
#76 = ORIENTED_EDGE ( 'NONE', *, *, #23, .T. ) ;
#77 = LOCAL_TIME ( 13, 34, 7.000000000000000000, #154 ) ;
#78 = ORIENTED_EDGE ( 'NONE', *, *, #103, .T. ) ;
#79 = AXIS2_PLACEMENT_3D ( 'NONE', #19, #146, #59 ) ;
#80 = EDGE_LOOP ( 'NONE', ( #1, #167 ) ) ;
#81 = APPROVAL ( #231, 'NEURÈENÝ' ) ;
#82 = VERTEX_POINT ( 'NONE', #148 ) ;
#83 = AXIS2_PLACEMENT_3D ( 'NONE', #228, #116, #243 ) ;
#84 = EDGE_LOOP ( 'NONE', ( #168, #238, #43, #58 ) ) ;
#85 = CIRCLE ( 'NONE', #153, 4.000000000000000000 ) ;
#86 = MANIFOLD_SOLID_BREP ( 'Pøidat vysunutím3', #98 ) ;
#87 = LINE ( 'NONE', #169, #202 ) ;
#88 = PLANE ( 'NONE',  #100 ) ;
#89 = AXIS2_PLACEMENT_3D ( 'NONE', #91, #94, #93 ) ;
#90 = APPROVAL_PERSON_ORGANIZATION ( #229, #92, #33 ) ;
#91 = CARTESIAN_POINT ( 'NONE',  ( 0.000000000000000000, 0.000000000000000000, 0.000000000000000000 ) ) ;
#92 = APPROVAL ( #12, 'NEURÈENÝ' ) ;
#93 = DIRECTION ( 'NONE',  ( 1.000000000000000000, 0.000000000000000000, -0.000000000000000000 ) ) ;
#94 = DIRECTION ( 'NONE',  ( 0.000000000000000000, 0.000000000000000000, 1.000000000000000000 ) ) ;
#95 = LOCAL_TIME ( 13, 34, 7.000000000000000000, #101 ) ;
#96 = APPROVAL_DATE_TIME ( #137, #81 ) ;
#97 = APPROVAL_DATE_TIME ( #194, #251 ) ;
#98 = CLOSED_SHELL ( 'NONE', ( #70, #217, #117, #121, #158, #28, #192 ) ) ;
#99 = DATE_AND_TIME ( #72, #74 ) ;
#100 = AXIS2_PLACEMENT_3D ( 'NONE', #220, #173, #171 ) ;
#101 = COORDINATED_UNIVERSAL_TIME_OFFSET ( 1, 0, .AHEAD. ) ;
#102 = UNCERTAINTY_MEASURE_WITH_UNIT (LENGTH_MEASURE( 1.000000000000000082E-05 ), #56, 'distance_accuracy_value', 'NONE');
#103 = EDGE_CURVE ( 'NONE', #242, #42, #51, .T. ) ;
#104 = ORIENTED_EDGE ( 'NONE', *, *, #39, .T. ) ;
#105 = CARTESIAN_POINT ( 'NONE',  ( -2.250000000000000000, 0.000000000000000000, 3.000000000000000000 ) ) ;
#106 = EDGE_CURVE ( 'NONE', #241, #107, #85, .T. ) ;
#107 = VERTEX_POINT ( 'NONE', #7 ) ;
#108 = CYLINDRICAL_SURFACE ( 'NONE', #182, 2.250000000000000000 ) ;
#109 = ORIENTED_EDGE ( 'NONE', *, *, #39, .F. ) ;
#110 = CIRCLE ( 'NONE', #254, 2.250000000000000000 ) ;
#111 = DIRECTION ( 'NONE',  ( 0.000000000000000000, 0.000000000000000000, 1.000000000000000000 ) ) ;
#112 = DIRECTION ( 'NONE',  ( 1.000000000000000000, 0.000000000000000000, 0.000000000000000000 ) ) ;
#113 = LOCAL_TIME ( 13, 34, 7.000000000000000000, #55 ) ;
#114 = DIRECTION ( 'NONE',  ( 0.000000000000000000, 0.000000000000000000, 1.000000000000000000 ) ) ;
#115 = LINE ( 'NONE', #131, #235 ) ;
#116 = DIRECTION ( 'NONE',  ( -0.000000000000000000, -0.000000000000000000, -1.000000000000000000 ) ) ;
#117 = ADVANCED_FACE ( 'NONE', ( #224 ), #147, .T. ) ;
#118 = PERSON_AND_ORGANIZATION ( #240, #226 ) ;
#119 = SECURITY_CLASSIFICATION ( '', '', #159 ) ;
#120 = EDGE_CURVE ( 'NONE', #82, #60, #36, .T. ) ;
#121 = ADVANCED_FACE ( 'NONE', ( #191, #21 ), #204, .T. ) ;
#122 = DIRECTION ( 'NONE',  ( -0.000000000000000000, -0.000000000000000000, -1.000000000000000000 ) ) ;
#123 = DIRECTION ( 'NONE',  ( -1.000000000000000000, 0.000000000000000000, 0.000000000000000000 ) ) ;
#124 = PRODUCT_DEFINITION ( 'NEZNÁMÝ', '', #143, #253 ) ;
#125 = ORIENTED_EDGE ( 'NONE', *, *, #236, .F. ) ;
#126 = AXIS2_PLACEMENT_3D ( 'NONE', #5, #132, #249 ) ;
#127 = ORIENTED_EDGE ( 'NONE', *, *, #128, .T. ) ;
#128 = EDGE_CURVE ( 'NONE', #186, #213, #32, .T. ) ;
#129 = CARTESIAN_POINT ( 'NONE',  ( 0.000000000000000000, 0.000000000000000000, 3.000000000000000000 ) ) ;
#130 = AXIS2_PLACEMENT_3D ( 'NONE', #67, #114, #190 ) ;
#131 = CARTESIAN_POINT ( 'NONE',  ( -2.250000000000000000, 0.000000000000000000, 125.0000000000000000 ) ) ;
#132 = DIRECTION ( 'NONE',  ( 0.000000000000000000, 0.000000000000000000, 1.000000000000000000 ) ) ;
#133 = DIRECTION ( 'NONE',  ( -0.000000000000000000, -0.000000000000000000, -1.000000000000000000 ) ) ;
#134 = PERSON_AND_ORGANIZATION ( #240, #226 ) ;
#135 = CC_DESIGN_APPROVAL ( #92, ( #119 ) ) ;
#136 = PERSON_AND_ORGANIZATION_ROLE ( 'classification_officer' ) ;
#137 = DATE_AND_TIME ( #9, #113 ) ;
#138 = CC_DESIGN_PERSON_AND_ORGANIZATION_ASSIGNMENT ( #118, #136, ( #119 ) ) ;
#139 = DATE_TIME_ROLE ( 'classification_date' ) ;
#140 = APPROVAL_ROLE ( '' ) ;
#141 = EDGE_LOOP ( 'NONE', ( #201, #15 ) ) ;
#142 = ORIENTED_EDGE ( 'NONE', *, *, #225, .T. ) ;
#143 = PRODUCT_DEFINITION_FORMATION_WITH_SPECIFIED_SOURCE ( 'LIBOVOLNÝ', '', #14, .NOT_KNOWN. ) ;
#144 = ORIENTED_EDGE ( 'NONE', *, *, #175, .T. ) ;
#145 = CC_DESIGN_DATE_AND_TIME_ASSIGNMENT ( #234, #139, ( #119 ) ) ;
#146 = DIRECTION ( 'NONE',  ( 0.000000000000000000, 0.000000000000000000, 1.000000000000000000 ) ) ;
#147 = CYLINDRICAL_SURFACE ( 'NONE', #45, 4.000000000000000000 ) ;
#148 = CARTESIAN_POINT ( 'NONE',  ( 2.250000000000000000, 2.755455298081543792E-16, 125.0000000000000000 ) ) ;
#149 = CC_DESIGN_PERSON_AND_ORGANIZATION_ASSIGNMENT ( #75, #250, ( #143 ) ) ;
#150 = DIRECTION ( 'NONE',  ( -1.000000000000000000, 0.000000000000000000, 0.000000000000000000 ) ) ;
#151 = DIRECTION ( 'NONE',  ( 0.000000000000000000, 0.000000000000000000, 1.000000000000000000 ) ) ;
#152 = CYLINDRICAL_SURFACE ( 'NONE', #83, 4.000000000000000000 ) ;
#153 = AXIS2_PLACEMENT_3D ( 'NONE', #129, #151, #112 ) ;
#154 = COORDINATED_UNIVERSAL_TIME_OFFSET ( 1, 0, .AHEAD. ) ;
#155 = APPROVAL_ROLE ( '' ) ;
#156 = APPLICATION_PROTOCOL_DEFINITION ( 'international standard', 'config_control_design', 1994, #230 ) ;
#157 = PERSON_AND_ORGANIZATION ( #240, #226 ) ;
#158 = ADVANCED_FACE ( 'NONE', ( #187 ), #223, .F. ) ;
#159 = SECURITY_CLASSIFICATION_LEVEL ( 'unclassified' ) ;
#160 = CIRCLE ( 'NONE', #193, 4.000000000000000000 ) ;
#161 = ORIENTED_EDGE ( 'NONE', *, *, #207, .F. ) ;
#162 = PRODUCT_DEFINITION_SHAPE ( 'NONE', 'NONE',  #124 ) ;
#163 = ORIENTED_EDGE ( 'NONE', *, *, #227, .F. ) ;
#164 = CARTESIAN_POINT ( 'NONE',  ( 0.000000000000000000, 0.000000000000000000, 3.000000000000000000 ) ) ;
#165 = CIRCLE ( 'NONE', #126, 2.250000000000000000 ) ;
#166 = PRODUCT_RELATED_PRODUCT_CATEGORY ( 'detail', '', ( #14 ) ) ;
#167 = ORIENTED_EDGE ( 'NONE', *, *, #120, .T. ) ;
#168 = ORIENTED_EDGE ( 'NONE', *, *, #16, .F. ) ;
#169 = CARTESIAN_POINT ( 'NONE',  ( 4.000000000000000000, 4.898587196589412829E-16, 3.000000000000000000 ) ) ;
#170 = DIRECTION ( 'NONE',  ( -0.000000000000000000, -0.000000000000000000, -1.000000000000000000 ) ) ;
#171 = DIRECTION ( 'NONE',  ( 1.000000000000000000, 0.000000000000000000, -0.000000000000000000 ) ) ;
#172 = FACE_OUTER_BOUND ( 'NONE', #80, .T. ) ;
#173 = DIRECTION ( 'NONE',  ( 0.000000000000000000, 0.000000000000000000, 1.000000000000000000 ) ) ;
#174 = CARTESIAN_POINT ( 'NONE',  ( 0.000000000000000000, 0.000000000000000000, 0.000000000000000000 ) ) ;
#175 = EDGE_CURVE ( 'NONE', #60, #42, #115, .T. ) ;
#176 = AXIS2_PLACEMENT_3D ( 'NONE', #65, #133, #247 ) ;
#177 = COORDINATED_UNIVERSAL_TIME_OFFSET ( 1, 0, .AHEAD. ) ;
#178 = DIRECTION ( 'NONE',  ( 1.000000000000000000, 0.000000000000000000, 0.000000000000000000 ) ) ;
#179 = CC_DESIGN_PERSON_AND_ORGANIZATION_ASSIGNMENT ( #157, #210, ( #14 ) ) ;
#180 = CALENDAR_DATE ( 2023, 12, 2 ) ;
#181 = APPLICATION_PROTOCOL_DEFINITION ( 'international standard', 'config_control_design', 1994, #245 ) ;
#182 = AXIS2_PLACEMENT_3D ( 'NONE', #38, #185, #123 ) ;
#183 = ORIENTED_EDGE ( 'NONE', *, *, #106, .F. ) ;
#184 = EDGE_LOOP ( 'NONE', ( #163, #183, #142, #127 ) ) ;
#185 = DIRECTION ( 'NONE',  ( -0.000000000000000000, -0.000000000000000000, -1.000000000000000000 ) ) ;
#186 = VERTEX_POINT ( 'NONE', #206 ) ;
#187 = FACE_OUTER_BOUND ( 'NONE', #64, .T. ) ;
#188 = CARTESIAN_POINT ( 'NONE',  ( 0.000000000000000000, 0.000000000000000000, 0.000000000000000000 ) ) ;
#189 = VECTOR ( 'NONE', #4, 1000.000000000000000 ) ;
#190 = DIRECTION ( 'NONE',  ( 1.000000000000000000, 0.000000000000000000, 0.000000000000000000 ) ) ;
#191 = FACE_BOUND ( 'NONE', #18, .T. ) ;
#192 = ADVANCED_FACE ( 'NONE', ( #172 ), #88, .T. ) ;
#193 = AXIS2_PLACEMENT_3D ( 'NONE', #44, #244, #66 ) ;
#194 = DATE_AND_TIME ( #71, #49 ) ;
#195 = CALENDAR_DATE ( 2023, 12, 2 ) ;
#196 = PERSON_AND_ORGANIZATION ( #240, #226 ) ;
#197 = EDGE_LOOP ( 'NONE', ( #237, #161, #144, #104 ) ) ;
#198 = CC_DESIGN_APPROVAL ( #81, ( #143 ) ) ;
#199 = DIRECTION ( 'NONE',  ( 0.000000000000000000, 0.000000000000000000, 1.000000000000000000 ) ) ;
#200 = ORIENTED_EDGE ( 'NONE', *, *, #128, .F. ) ;
#201 = ORIENTED_EDGE ( 'NONE', *, *, #106, .T. ) ;
#202 = VECTOR ( 'NONE', #170, 1000.000000000000000 ) ;
#203 = CARTESIAN_POINT ( 'NONE',  ( 0.000000000000000000, 0.000000000000000000, 3.000000000000000000 ) ) ;
#204 = PLANE ( 'NONE',  #30 ) ;
#205 = CC_DESIGN_PERSON_AND_ORGANIZATION_ASSIGNMENT ( #31, #54, ( #143 ) ) ;
#206 = CARTESIAN_POINT ( 'NONE',  ( -4.000000000000000000, 0.000000000000000000, 0.000000000000000000 ) ) ;
#207 = EDGE_CURVE ( 'NONE', #60, #82, #165, .T. ) ;
#208 = CARTESIAN_POINT ( 'NONE',  ( -4.000000000000000000, 0.000000000000000000, 3.000000000000000000 ) ) ;
#209 = APPROVAL_DATE_TIME ( #252, #92 ) ;
#210 = PERSON_AND_ORGANIZATION_ROLE ( 'design_owner' ) ;
#211 = MECHANICAL_CONTEXT ( 'NONE', #230, 'mechanical' ) ;
#212 = CC_DESIGN_APPROVAL ( #251, ( #124 ) ) ;
#213 = VERTEX_POINT ( 'NONE', #69 ) ;
#214 = FACE_OUTER_BOUND ( 'NONE', #197, .T. ) ;
#215 = CC_DESIGN_SECURITY_CLASSIFICATION ( #119, ( #143 ) ) ;
#216 = FACE_OUTER_BOUND ( 'NONE', #61, .T. ) ;
#217 = ADVANCED_FACE ( 'NONE', ( #25 ), #152, .T. ) ;
#218 = ORIENTED_EDGE ( 'NONE', *, *, #120, .F. ) ;
#219 = CARTESIAN_POINT ( 'NONE',  ( 2.250000000000000000, 2.755455298081543792E-16, 125.0000000000000000 ) ) ;
#220 = CARTESIAN_POINT ( 'NONE',  ( 0.000000000000000000, 0.000000000000000000, 125.0000000000000000 ) ) ;
#221 = CARTESIAN_POINT ( 'NONE',  ( -4.000000000000000000, 0.000000000000000000, 3.000000000000000000 ) ) ;
#222 = AXIS2_PLACEMENT_3D ( 'NONE', #47, #6, #22 ) ;
#223 = PLANE ( 'NONE',  #89 ) ;
#224 = FACE_OUTER_BOUND ( 'NONE', #184, .T. ) ;
#225 = EDGE_CURVE ( 'NONE', #241, #186, #50, .T. ) ;
#226 = ORGANIZATION ( 'NEURÈENÝ', 'NEURÈENÝ', '' ) ;
#227 = EDGE_CURVE ( 'NONE', #107, #213, #87, .T. ) ;
#228 = CARTESIAN_POINT ( 'NONE',  ( 0.000000000000000000, 0.000000000000000000, 3.000000000000000000 ) ) ;
#229 = PERSON_AND_ORGANIZATION ( #240, #226 ) ;
#230 = APPLICATION_CONTEXT ( 'configuration controlled 3d designs of mechanical parts and assemblies' ) ;
#231 = APPROVAL_STATUS ( 'not_yet_approved' ) ;
#232 = VECTOR ( 'NONE', #122, 1000.000000000000000 ) ;
#233 = PERSON_AND_ORGANIZATION_ROLE ( 'creator' ) ;
#234 = DATE_AND_TIME ( #195, #77 ) ;
#235 = VECTOR ( 'NONE', #24, 1000.000000000000000 ) ;
#236 = EDGE_CURVE ( 'NONE', #213, #186, #160, .T. ) ;
#237 = ORIENTED_EDGE ( 'NONE', *, *, #23, .F. ) ;
#238 = ORIENTED_EDGE ( 'NONE', *, *, #227, .T. ) ;
#239 = CARTESIAN_POINT ( 'NONE',  ( -2.250000000000000000, 0.000000000000000000, 125.0000000000000000 ) ) ;
#240 = PERSON ( 'NEURÈENÝ', 'NEURÈENÝ', 'NEURÈENÝ', ('NEURÈENÝ'), ('NEURÈENÝ'), ('NEURÈENÝ') ) ;
#241 = VERTEX_POINT ( 'NONE', #221 ) ;
#242 = VERTEX_POINT ( 'NONE', #46 ) ;
#243 = DIRECTION ( 'NONE',  ( -1.000000000000000000, 0.000000000000000000, 0.000000000000000000 ) ) ;
#244 = DIRECTION ( 'NONE',  ( 0.000000000000000000, 0.000000000000000000, 1.000000000000000000 ) ) ;
#245 = APPLICATION_CONTEXT ( 'configuration controlled 3d designs of mechanical parts and assemblies' ) ;
#246 = APPROVAL_PERSON_ORGANIZATION ( #196, #251, #140 ) ;
#247 = DIRECTION ( 'NONE',  ( -1.000000000000000000, 0.000000000000000000, 0.000000000000000000 ) ) ;
#248 = DIRECTION ( 'NONE',  ( 0.000000000000000000, 0.000000000000000000, 1.000000000000000000 ) ) ;
#249 = DIRECTION ( 'NONE',  ( 1.000000000000000000, 0.000000000000000000, 0.000000000000000000 ) ) ;
#250 = PERSON_AND_ORGANIZATION_ROLE ( 'creator' ) ;
#251 = APPROVAL ( #35, 'NEURÈENÝ' ) ;
#252 = DATE_AND_TIME ( #180, #95 ) ;
#253 = DESIGN_CONTEXT ( 'detailed design', #245, 'design' ) ;
#254 = AXIS2_PLACEMENT_3D ( 'NONE', #164, #199, #17 ) ;
#255 = PERSON_AND_ORGANIZATION ( #240, #226 ) ;
ENDSEC;
END-ISO-10303-21;
