ISO-10303-21;
HEADER;
FILE_DESCRIPTION (( 'STEP AP203' ),
    '1' );
FILE_NAME ('2089.STEP',
    '2022-07-07T09:33:38',
    ( '' ),
    ( '' ),
    'SwSTEP 2.0',
    'SolidWorks 2019',
    '' );
FILE_SCHEMA (( 'CONFIG_CONTROL_DESIGN' ));
ENDSEC;

DATA;
#1 = CIRCLE ( 'NONE', #188, 0.2000000000000005107 ) ;
#2 = ORIENTED_EDGE ( 'NONE', *, *, #105, .T. ) ;
#3 = ORIENTED_EDGE ( 'NONE', *, *, #52, .T. ) ;
#4 = CARTESIAN_POINT ( 'NONE',  ( 0.000000000000000000, 0.000000000000000000, 8.000000000000000000 ) ) ;
#5 = DIRECTION ( 'NONE',  ( -1.000000000000000000, 0.000000000000000000, 0.000000000000000000 ) ) ;
#6 = EDGE_LOOP ( 'NONE', ( #34, #175, #269, #67 ) ) ;
#7 = DIRECTION ( 'NONE',  ( -0.000000000000000000, -0.000000000000000000, -1.000000000000000000 ) ) ;
#8 = ADVANCED_FACE ( 'NONE', ( #113 ), #294, .T. ) ;
#9 = CARTESIAN_POINT ( 'NONE',  ( 0.000000000000000000, 0.000000000000000000, 8.199999999999985079 ) ) ;
#10 = PLANE ( 'NONE',  #26 ) ;
#11 = DIRECTION ( 'NONE',  ( 0.000000000000000000, 0.000000000000000000, 1.000000000000000000 ) ) ;
#12 = CARTESIAN_POINT ( 'NONE',  ( 0.000000000000000000, 0.000000000000000000, 8.000000000000000000 ) ) ;
#13 = VECTOR ( 'NONE', #33, 1000.000000000000000 ) ;
#14 = LINE ( 'NONE', #137, #114 ) ;
#15 = PRODUCT_DEFINITION_SHAPE ( 'NONE', 'NONE',  #66 ) ;
#16 = EDGE_CURVE ( 'NONE', #79, #89, #99, .T. ) ;
#17 = DIRECTION ( 'NONE',  ( 1.000000000000000000, 0.000000000000000000, 0.000000000000000000 ) ) ;
#18 = CALENDAR_DATE ( 2022, 7, 7 ) ;
#19 = APPROVAL_DATE_TIME ( #46, #127 ) ;
#20 = AXIS2_PLACEMENT_3D ( 'NONE', #209, #187, #202 ) ;
#21 = ADVANCED_FACE ( 'NONE', ( #160 ), #226, .T. ) ;
#22 = CC_DESIGN_SECURITY_CLASSIFICATION ( #86, ( #171 ) ) ;
#23 = DIRECTION ( 'NONE',  ( 0.000000000000000000, 0.000000000000000000, 1.000000000000000000 ) ) ;
#24 = PERSON_AND_ORGANIZATION_ROLE ( 'classification_officer' ) ;
#25 =( NAMED_UNIT ( * ) SI_UNIT ( $, .STERADIAN. ) SOLID_ANGLE_UNIT ( ) );
#26 = AXIS2_PLACEMENT_3D ( 'NONE', #300, #295, #112 ) ;
#27 = EDGE_CURVE ( 'NONE', #217, #248, #281, .T. ) ;
#28 = ORIENTED_EDGE ( 'NONE', *, *, #55, .F. ) ;
#29 = ADVANCED_FACE ( 'NONE', ( #206 ), #80, .F. ) ;
#30 = CIRCLE ( 'NONE', #75, 10.00000000000000000 ) ;
#31 = CARTESIAN_POINT ( 'NONE',  ( 0.000000000000000000, 0.000000000000000000, 638.0000000000000000 ) ) ;
#32 = ORIENTED_EDGE ( 'NONE', *, *, #16, .F. ) ;
#33 = DIRECTION ( 'NONE',  ( -0.000000000000000000, -0.000000000000000000, -1.000000000000000000 ) ) ;
#34 = ORIENTED_EDGE ( 'NONE', *, *, #186, .F. ) ;
#35 = UNCERTAINTY_MEASURE_WITH_UNIT (LENGTH_MEASURE( 1.000000000000000082E-05 ), #261, 'distance_accuracy_value', 'NONE');
#36 = CIRCLE ( 'NONE', #148, 10.00000000000000000 ) ;
#37 = DIRECTION ( 'NONE',  ( 1.000000000000000000, 0.000000000000000000, 0.000000000000000000 ) ) ;
#38 = DIRECTION ( 'NONE',  ( 1.000000000000000000, 0.000000000000000000, 0.000000000000000000 ) ) ;
#39 = DIRECTION ( 'NONE',  ( 0.000000000000000000, -1.000000000000000000, 0.000000000000000000 ) ) ;
#40 = ORIENTED_EDGE ( 'NONE', *, *, #27, .F. ) ;
#41 = CARTESIAN_POINT ( 'NONE',  ( 0.000000000000000000, 0.000000000000000000, 638.0000000000000000 ) ) ;
#42 = CARTESIAN_POINT ( 'NONE',  ( -10.20000000000000107, 1.249139735130300365E-15, 7.999999999999992895 ) ) ;
#43 = PRODUCT_RELATED_PRODUCT_CATEGORY ( 'detail', '', ( #116 ) ) ;
#44 = DIRECTION ( 'NONE',  ( -1.000000000000000000, 1.224646799147353207E-16, 0.000000000000000000 ) ) ;
#45 =( GEOMETRIC_REPRESENTATION_CONTEXT ( 3 ) GLOBAL_UNCERTAINTY_ASSIGNED_CONTEXT ( ( #35 ) ) GLOBAL_UNIT_ASSIGNED_CONTEXT ( ( #261, #210, #25 ) ) REPRESENTATION_CONTEXT ( 'NONE', 'WORKASPACE' ) );
#46 = DATE_AND_TIME ( #239, #131 ) ;
#47 = APPROVAL_STATUS ( 'not_yet_approved' ) ;
#48 = CC_DESIGN_PERSON_AND_ORGANIZATION_ASSIGNMENT ( #237, #98, ( #116 ) ) ;
#49 = CC_DESIGN_APPROVAL ( #284, ( #171 ) ) ;
#50 = PERSON_AND_ORGANIZATION ( #273, #287 ) ;
#51 = DIRECTION ( 'NONE',  ( 1.000000000000000000, 0.000000000000000000, 0.000000000000000000 ) ) ;
#52 = EDGE_CURVE ( 'NONE', #247, #125, #62, .T. ) ;
#53 = DATE_TIME_ROLE ( 'classification_date' ) ;
#54 = APPROVAL_ROLE ( '' ) ;
#55 = EDGE_CURVE ( 'NONE', #103, #130, #36, .T. ) ;
#56 = SHAPE_DEFINITION_REPRESENTATION ( #15, #203 ) ;
#57 = VECTOR ( 'NONE', #7, 1000.000000000000000 ) ;
#58 = ORIENTED_EDGE ( 'NONE', *, *, #72, .F. ) ;
#59 = ORIENTED_EDGE ( 'NONE', *, *, #27, .T. ) ;
#60 = FACE_OUTER_BOUND ( 'NONE', #154, .T. ) ;
#61 = ORIENTED_EDGE ( 'NONE', *, *, #159, .T. ) ;
#62 = CIRCLE ( 'NONE', #143, 13.00000000000000178 ) ;
#63 = CARTESIAN_POINT ( 'NONE',  ( 13.00000000000000178, 1.592040838891559293E-15, 0.000000000000000000 ) ) ;
#64 = EDGE_LOOP ( 'NONE', ( #220, #152, #77, #123 ) ) ;
#65 = CARTESIAN_POINT ( 'NONE',  ( 10.20000000000000107, 0.000000000000000000, 8.199999999999985079 ) ) ;
#66 = PRODUCT_DEFINITION ( 'NEZNÁMÝ', '', #171, #224 ) ;
#67 = ORIENTED_EDGE ( 'NONE', *, *, #105, .F. ) ;
#68 = PLANE ( 'NONE',  #306 ) ;
#69 = APPLICATION_PROTOCOL_DEFINITION ( 'international standard', 'config_control_design', 1994, #238 ) ;
#70 = CLOSED_SHELL ( 'NONE', ( #97, #8, #144, #21, #255, #266, #179, #170, #29 ) ) ;
#71 = DIRECTION ( 'NONE',  ( 1.000000000000000000, 0.000000000000000000, 0.000000000000000000 ) ) ;
#72 = EDGE_CURVE ( 'NONE', #110, #247, #235, .T. ) ;
#73 = DIRECTION ( 'NONE',  ( 0.000000000000000000, 0.000000000000000000, 1.000000000000000000 ) ) ;
#74 = SECURITY_CLASSIFICATION_LEVEL ( 'unclassified' ) ;
#75 = AXIS2_PLACEMENT_3D ( 'NONE', #41, #234, #17 ) ;
#76 = VECTOR ( 'NONE', #258, 1000.000000000000000 ) ;
#77 = ORIENTED_EDGE ( 'NONE', *, *, #166, .F. ) ;
#78 = ORIENTED_EDGE ( 'NONE', *, *, #72, .T. ) ;
#79 = VERTEX_POINT ( 'NONE', #42 ) ;
#80 = TOROIDAL_SURFACE ( 'NONE', #260, 10.20000000000000107, 0.2000000000000000111 ) ;
#81 = ORIENTED_EDGE ( 'NONE', *, *, #301, .T. ) ;
#82 = CYLINDRICAL_SURFACE ( 'NONE', #291, 13.00000000000000178 ) ;
#83 = DIRECTION ( 'NONE',  ( -1.000000000000000000, 0.000000000000000000, 0.000000000000000000 ) ) ;
#84 = PLANE ( 'NONE',  #197 ) ;
#85 = ORIENTED_EDGE ( 'NONE', *, *, #159, .F. ) ;
#86 = SECURITY_CLASSIFICATION ( '', '', #74 ) ;
#87 = EDGE_CURVE ( 'NONE', #126, #125, #14, .T. ) ;
#88 = CARTESIAN_POINT ( 'NONE',  ( 0.000000000000000000, 0.000000000000000000, 8.000000000000000000 ) ) ;
#89 = VERTEX_POINT ( 'NONE', #250 ) ;
#90 = CARTESIAN_POINT ( 'NONE',  ( 0.000000000000000000, 0.000000000000000000, 0.000000000000000000 ) ) ;
#91 = DIRECTION ( 'NONE',  ( 0.000000000000000000, 0.000000000000000000, -1.000000000000000000 ) ) ;
#92 = APPROVAL_ROLE ( '' ) ;
#93 = AXIS2_PLACEMENT_3D ( 'NONE', #4, #106, #272 ) ;
#94 = CC_DESIGN_PERSON_AND_ORGANIZATION_ASSIGNMENT ( #50, #96, ( #171 ) ) ;
#95 = DIRECTION ( 'NONE',  ( 0.000000000000000000, 0.000000000000000000, 1.000000000000000000 ) ) ;
#96 = PERSON_AND_ORGANIZATION_ROLE ( 'creator' ) ;
#97 = ADVANCED_FACE ( 'NONE', ( #117 ), #138, .F. ) ;
#98 = PERSON_AND_ORGANIZATION_ROLE ( 'design_owner' ) ;
#99 = CIRCLE ( 'NONE', #276, 10.20000000000000107 ) ;
#100 = EDGE_LOOP ( 'NONE', ( #59, #251 ) ) ;
#101 = CC_DESIGN_DATE_AND_TIME_ASSIGNMENT ( #218, #53, ( #86 ) ) ;
#102 = APPROVAL_DATE_TIME ( #172, #249 ) ;
#103 = VERTEX_POINT ( 'NONE', #227 ) ;
#104 = CARTESIAN_POINT ( 'NONE',  ( 0.000000000000000000, 0.000000000000000000, 0.000000000000000000 ) ) ;
#105 = EDGE_CURVE ( 'NONE', #217, #130, #232, .T. ) ;
#106 = DIRECTION ( 'NONE',  ( -0.000000000000000000, -0.000000000000000000, -1.000000000000000000 ) ) ;
#107 = CARTESIAN_POINT ( 'NONE',  ( 13.00000000000000178, 1.592040838891559293E-15, 8.000000000000000000 ) ) ;
#108 = EDGE_LOOP ( 'NONE', ( #181, #292 ) ) ;
#109 = CARTESIAN_POINT ( 'NONE',  ( -13.00000000000000178, 0.000000000000000000, 0.000000000000000000 ) ) ;
#110 = VERTEX_POINT ( 'NONE', #134 ) ;
#111 = CC_DESIGN_DATE_AND_TIME_ASSIGNMENT ( #282, #146, ( #66 ) ) ;
#112 = DIRECTION ( 'NONE',  ( 1.000000000000000000, 0.000000000000000000, -0.000000000000000000 ) ) ;
#113 = FACE_OUTER_BOUND ( 'NONE', #6, .T. ) ;
#114 = VECTOR ( 'NONE', #183, 1000.000000000000000 ) ;
#115 = DIRECTION ( 'NONE',  ( 0.000000000000000000, 0.000000000000000000, 1.000000000000000000 ) ) ;
#116 = PRODUCT ( '2089', '2089', '', ( #167 ) ) ;
#117 = FACE_OUTER_BOUND ( 'NONE', #64, .T. ) ;
#118 = PERSON_AND_ORGANIZATION ( #273, #287 ) ;
#119 = COORDINATED_UNIVERSAL_TIME_OFFSET ( 1, 0, .AHEAD. ) ;
#120 = COORDINATED_UNIVERSAL_TIME_OFFSET ( 1, 0, .AHEAD. ) ;
#121 = AXIS2_PLACEMENT_3D ( 'NONE', #88, #252, #37 ) ;
#122 = EDGE_LOOP ( 'NONE', ( #81, #254 ) ) ;
#123 = ORIENTED_EDGE ( 'NONE', *, *, #150, .F. ) ;
#124 = LOCAL_TIME ( 11, 33, 38.00000000000000000, #120 ) ;
#125 = VERTEX_POINT ( 'NONE', #63 ) ;
#126 = VERTEX_POINT ( 'NONE', #107 ) ;
#127 = APPROVAL ( #165, 'NEURÈENÝ' ) ;
#128 = ORIENTED_EDGE ( 'NONE', *, *, #52, .F. ) ;
#129 = DIRECTION ( 'NONE',  ( 0.000000000000000000, 0.000000000000000000, 1.000000000000000000 ) ) ;
#130 = VERTEX_POINT ( 'NONE', #180 ) ;
#131 = LOCAL_TIME ( 11, 33, 38.00000000000000000, #242 ) ;
#132 = CARTESIAN_POINT ( 'NONE',  ( -10.00000000000000000, 0.000000000000000000, 638.0000000000000000 ) ) ;
#133 = DIRECTION ( 'NONE',  ( -0.000000000000000000, -0.000000000000000000, -1.000000000000000000 ) ) ;
#134 = CARTESIAN_POINT ( 'NONE',  ( -13.00000000000000178, 0.000000000000000000, 8.000000000000000000 ) ) ;
#135 = DIRECTION ( 'NONE',  ( 1.000000000000000000, 0.000000000000000000, 0.000000000000000000 ) ) ;
#136 = CARTESIAN_POINT ( 'NONE',  ( 10.00000000000000000, 1.224646799147353256E-15, 638.0000000000000000 ) ) ;
#137 = CARTESIAN_POINT ( 'NONE',  ( 13.00000000000000178, 1.592040838891559293E-15, 8.000000000000000000 ) ) ;
#138 = TOROIDAL_SURFACE ( 'NONE', #20, 10.20000000000000107, 0.2000000000000000111 ) ;
#139 = DIRECTION ( 'NONE',  ( -0.000000000000000000, -0.000000000000000000, -1.000000000000000000 ) ) ;
#140 = MANIFOLD_SOLID_BREP ( 'Zaoblit1', #70 ) ;
#141 = PERSON_AND_ORGANIZATION_ROLE ( 'creator' ) ;
#142 = APPROVAL_ROLE ( '' ) ;
#143 = AXIS2_PLACEMENT_3D ( 'NONE', #104, #231, #196 ) ;
#144 = ADVANCED_FACE ( 'NONE', ( #293 ), #82, .T. ) ;
#145 = PERSON_AND_ORGANIZATION ( #273, #287 ) ;
#146 = DATE_TIME_ROLE ( 'creation_date' ) ;
#147 = CALENDAR_DATE ( 2022, 7, 7 ) ;
#148 = AXIS2_PLACEMENT_3D ( 'NONE', #290, #11, #233 ) ;
#149 = COORDINATED_UNIVERSAL_TIME_OFFSET ( 1, 0, .AHEAD. ) ;
#150 = EDGE_CURVE ( 'NONE', #103, #89, #1, .T. ) ;
#151 = LOCAL_TIME ( 11, 33, 38.00000000000000000, #149 ) ;
#152 = ORIENTED_EDGE ( 'NONE', *, *, #173, .T. ) ;
#153 = CARTESIAN_POINT ( 'NONE',  ( 0.000000000000000000, 0.000000000000000000, 8.000000000000000000 ) ) ;
#154 = EDGE_LOOP ( 'NONE', ( #289, #40, #2, #156 ) ) ;
#155 = DIRECTION ( 'NONE',  ( -1.000000000000000000, 0.000000000000000000, 0.000000000000000000 ) ) ;
#156 = ORIENTED_EDGE ( 'NONE', *, *, #268, .T. ) ;
#157 = LOCAL_TIME ( 11, 33, 38.00000000000000000, #212 ) ;
#158 = DIRECTION ( 'NONE',  ( 1.224646799147353207E-16, 1.000000000000000000, -0.000000000000000000 ) ) ;
#159 = EDGE_CURVE ( 'NONE', #125, #247, #164, .T. ) ;
#160 = FACE_OUTER_BOUND ( 'NONE', #222, .T. ) ;
#161 = CARTESIAN_POINT ( 'NONE',  ( 10.00000000000000000, 1.224646799147353256E-15, 638.0000000000000000 ) ) ;
#162 = CARTESIAN_POINT ( 'NONE',  ( -13.00000000000000178, 0.000000000000000000, 8.000000000000000000 ) ) ;
#163 = CARTESIAN_POINT ( 'NONE',  ( 0.000000000000000000, 0.000000000000000000, 0.000000000000000000 ) ) ;
#164 = CIRCLE ( 'NONE', #240, 13.00000000000000178 ) ;
#165 = APPROVAL_STATUS ( 'not_yet_approved' ) ;
#166 = EDGE_CURVE ( 'NONE', #89, #79, #263, .T. ) ;
#167 = MECHANICAL_CONTEXT ( 'NONE', #225, 'mechanical' ) ;
#168 = CIRCLE ( 'NONE', #191, 0.2000000000000005107 ) ;
#169 = CALENDAR_DATE ( 2022, 7, 7 ) ;
#170 = ADVANCED_FACE ( 'NONE', ( #177 ), #10, .T. ) ;
#171 = PRODUCT_DEFINITION_FORMATION_WITH_SPECIFIED_SOURCE ( 'LIBOVOLNÝ', '', #116, .NOT_KNOWN. ) ;
#172 = DATE_AND_TIME ( #147, #151 ) ;
#173 = EDGE_CURVE ( 'NONE', #130, #79, #168, .T. ) ;
#174 = CIRCLE ( 'NONE', #207, 13.00000000000000178 ) ;
#175 = ORIENTED_EDGE ( 'NONE', *, *, #219, .T. ) ;
#176 = EDGE_LOOP ( 'NONE', ( #128, #85 ) ) ;
#177 = FACE_OUTER_BOUND ( 'NONE', #100, .T. ) ;
#178 = CARTESIAN_POINT ( 'NONE',  ( 0.000000000000000000, 0.000000000000000000, 8.000000000000000000 ) ) ;
#179 = ADVANCED_FACE ( 'NONE', ( #60 ), #279, .T. ) ;
#180 = CARTESIAN_POINT ( 'NONE',  ( -10.00000000000000000, 0.000000000000000000, 8.199999999999985079 ) ) ;
#181 = ORIENTED_EDGE ( 'NONE', *, *, #166, .T. ) ;
#182 = APPROVAL_PERSON_ORGANIZATION ( #241, #127, #92 ) ;
#183 = DIRECTION ( 'NONE',  ( -0.000000000000000000, -0.000000000000000000, -1.000000000000000000 ) ) ;
#184 = DIRECTION ( 'NONE',  ( 0.000000000000000000, 0.000000000000000000, 1.000000000000000000 ) ) ;
#185 = CARTESIAN_POINT ( 'NONE',  ( -10.20000000000000107, 1.249139735130300365E-15, 8.199999999999985079 ) ) ;
#186 = EDGE_CURVE ( 'NONE', #248, #217, #30, .T. ) ;
#187 = DIRECTION ( 'NONE',  ( 0.000000000000000000, 0.000000000000000000, 1.000000000000000000 ) ) ;
#188 = AXIS2_PLACEMENT_3D ( 'NONE', #65, #39, #91 ) ;
#189 = CC_DESIGN_APPROVAL ( #249, ( #86 ) ) ;
#190 = CARTESIAN_POINT ( 'NONE',  ( 0.000000000000000000, 0.000000000000000000, 8.199999999999985079 ) ) ;
#191 = AXIS2_PLACEMENT_3D ( 'NONE', #185, #158, #44 ) ;
#192 = CALENDAR_DATE ( 2022, 7, 7 ) ;
#193 = CARTESIAN_POINT ( 'NONE',  ( 0.000000000000000000, 0.000000000000000000, 8.000000000000000000 ) ) ;
#194 = LOCAL_TIME ( 11, 33, 38.00000000000000000, #119 ) ;
#195 = ORIENTED_EDGE ( 'NONE', *, *, #87, .F. ) ;
#196 = DIRECTION ( 'NONE',  ( 1.000000000000000000, 0.000000000000000000, 0.000000000000000000 ) ) ;
#197 = AXIS2_PLACEMENT_3D ( 'NONE', #12, #115, #259 ) ;
#198 = ORIENTED_EDGE ( 'NONE', *, *, #301, .F. ) ;
#199 = CARTESIAN_POINT ( 'NONE',  ( -10.00000000000000000, 0.000000000000000000, 638.0000000000000000 ) ) ;
#200 = CC_DESIGN_PERSON_AND_ORGANIZATION_ASSIGNMENT ( #145, #24, ( #86 ) ) ;
#201 = ORIENTED_EDGE ( 'NONE', *, *, #87, .T. ) ;
#202 = DIRECTION ( 'NONE',  ( 1.000000000000000000, 0.000000000000000000, 0.000000000000000000 ) ) ;
#203 = ADVANCED_BREP_SHAPE_REPRESENTATION ( '2089', ( #140, #216 ), #45 ) ;
#204 = CARTESIAN_POINT ( 'NONE',  ( 0.000000000000000000, 0.000000000000000000, 638.0000000000000000 ) ) ;
#205 = CARTESIAN_POINT ( 'NONE',  ( 0.000000000000000000, 0.000000000000000000, 638.0000000000000000 ) ) ;
#206 = FACE_OUTER_BOUND ( 'NONE', #229, .T. ) ;
#207 = AXIS2_PLACEMENT_3D ( 'NONE', #193, #95, #71 ) ;
#208 = FACE_OUTER_BOUND ( 'NONE', #176, .T. ) ;
#209 = CARTESIAN_POINT ( 'NONE',  ( 0.000000000000000000, 0.000000000000000000, 8.199999999999985079 ) ) ;
#210 =( NAMED_UNIT ( * ) PLANE_ANGLE_UNIT ( ) SI_UNIT ( $, .RADIAN. ) );
#211 = CIRCLE ( 'NONE', #121, 13.00000000000000178 ) ;
#212 = COORDINATED_UNIVERSAL_TIME_OFFSET ( 1, 0, .AHEAD. ) ;
#213 = EDGE_CURVE ( 'NONE', #126, #110, #211, .T. ) ;
#214 = DATE_AND_TIME ( #169, #194 ) ;
#215 = CARTESIAN_POINT ( 'NONE',  ( 0.000000000000000000, 0.000000000000000000, 0.000000000000000000 ) ) ;
#216 = AXIS2_PLACEMENT_3D ( 'NONE', #215, #73, #51 ) ;
#217 = VERTEX_POINT ( 'NONE', #132 ) ;
#218 = DATE_AND_TIME ( #192, #124 ) ;
#219 = EDGE_CURVE ( 'NONE', #248, #103, #230, .T. ) ;
#220 = ORIENTED_EDGE ( 'NONE', *, *, #268, .F. ) ;
#221 = AXIS2_PLACEMENT_3D ( 'NONE', #153, #275, #271 ) ;
#222 = EDGE_LOOP ( 'NONE', ( #195, #198, #78, #3 ) ) ;
#223 = DIRECTION ( 'NONE',  ( 1.000000000000000000, 0.000000000000000000, 0.000000000000000000 ) ) ;
#224 = DESIGN_CONTEXT ( 'detailed design', #238, 'design' ) ;
#225 = APPLICATION_CONTEXT ( 'configuration controlled 3d designs of mechanical parts and assemblies' ) ;
#226 = CYLINDRICAL_SURFACE ( 'NONE', #93, 13.00000000000000178 ) ;
#227 = CARTESIAN_POINT ( 'NONE',  ( 10.00000000000000000, 1.224646799147353256E-15, 8.199999999999985079 ) ) ;
#228 = CIRCLE ( 'NONE', #253, 10.00000000000000000 ) ;
#229 = EDGE_LOOP ( 'NONE', ( #288, #28, #277, #32 ) ) ;
#230 = LINE ( 'NONE', #136, #57 ) ;
#231 = DIRECTION ( 'NONE',  ( 0.000000000000000000, 0.000000000000000000, 1.000000000000000000 ) ) ;
#232 = LINE ( 'NONE', #199, #13 ) ;
#233 = DIRECTION ( 'NONE',  ( 1.000000000000000000, 0.000000000000000000, 0.000000000000000000 ) ) ;
#234 = DIRECTION ( 'NONE',  ( 0.000000000000000000, 0.000000000000000000, 1.000000000000000000 ) ) ;
#235 = LINE ( 'NONE', #162, #76 ) ;
#236 = FACE_BOUND ( 'NONE', #108, .T. ) ;
#237 = PERSON_AND_ORGANIZATION ( #273, #287 ) ;
#238 = APPLICATION_CONTEXT ( 'configuration controlled 3d designs of mechanical parts and assemblies' ) ;
#239 = CALENDAR_DATE ( 2022, 7, 7 ) ;
#240 = AXIS2_PLACEMENT_3D ( 'NONE', #90, #129, #280 ) ;
#241 = PERSON_AND_ORGANIZATION ( #273, #287 ) ;
#242 = COORDINATED_UNIVERSAL_TIME_OFFSET ( 1, 0, .AHEAD. ) ;
#243 = AXIS2_PLACEMENT_3D ( 'NONE', #204, #296, #83 ) ;
#244 = APPROVAL_STATUS ( 'not_yet_approved' ) ;
#245 = APPROVAL_PERSON_ORGANIZATION ( #265, #249, #54 ) ;
#246 = CC_DESIGN_APPROVAL ( #127, ( #66 ) ) ;
#247 = VERTEX_POINT ( 'NONE', #109 ) ;
#248 = VERTEX_POINT ( 'NONE', #161 ) ;
#249 = APPROVAL ( #244, 'NEURÈENÝ' ) ;
#250 = CARTESIAN_POINT ( 'NONE',  ( 10.20000000000000107, 0.000000000000000000, 7.999999999999992895 ) ) ;
#251 = ORIENTED_EDGE ( 'NONE', *, *, #186, .T. ) ;
#252 = DIRECTION ( 'NONE',  ( 0.000000000000000000, 0.000000000000000000, 1.000000000000000000 ) ) ;
#253 = AXIS2_PLACEMENT_3D ( 'NONE', #190, #23, #264 ) ;
#254 = ORIENTED_EDGE ( 'NONE', *, *, #213, .T. ) ;
#255 = ADVANCED_FACE ( 'NONE', ( #236, #257 ), #84, .T. ) ;
#256 = DIRECTION ( 'NONE',  ( 0.000000000000000000, 0.000000000000000000, 1.000000000000000000 ) ) ;
#257 = FACE_OUTER_BOUND ( 'NONE', #122, .T. ) ;
#258 = DIRECTION ( 'NONE',  ( -0.000000000000000000, -0.000000000000000000, -1.000000000000000000 ) ) ;
#259 = DIRECTION ( 'NONE',  ( 1.000000000000000000, 0.000000000000000000, -0.000000000000000000 ) ) ;
#260 = AXIS2_PLACEMENT_3D ( 'NONE', #9, #256, #135 ) ;
#261 =( LENGTH_UNIT ( ) NAMED_UNIT ( * ) SI_UNIT ( .MILLI., .METRE. ) );
#262 = DIRECTION ( 'NONE',  ( 1.000000000000000000, 0.000000000000000000, -0.000000000000000000 ) ) ;
#263 = CIRCLE ( 'NONE', #221, 10.20000000000000107 ) ;
#264 = DIRECTION ( 'NONE',  ( 1.000000000000000000, 0.000000000000000000, 0.000000000000000000 ) ) ;
#265 = PERSON_AND_ORGANIZATION ( #273, #287 ) ;
#266 = ADVANCED_FACE ( 'NONE', ( #208 ), #68, .F. ) ;
#267 = AXIS2_PLACEMENT_3D ( 'NONE', #205, #297, #155 ) ;
#268 = EDGE_CURVE ( 'NONE', #130, #103, #228, .T. ) ;
#269 = ORIENTED_EDGE ( 'NONE', *, *, #55, .T. ) ;
#270 = EDGE_LOOP ( 'NONE', ( #299, #201, #61, #58 ) ) ;
#271 = DIRECTION ( 'NONE',  ( 1.000000000000000000, 0.000000000000000000, 0.000000000000000000 ) ) ;
#272 = DIRECTION ( 'NONE',  ( -1.000000000000000000, 0.000000000000000000, 0.000000000000000000 ) ) ;
#273 = PERSON ( 'NEURÈENÝ', 'NEURÈENÝ', 'NEURÈENÝ', ('NEURÈENÝ'), ('NEURÈENÝ'), ('NEURÈENÝ') ) ;
#274 = CC_DESIGN_PERSON_AND_ORGANIZATION_ASSIGNMENT ( #118, #141, ( #66 ) ) ;
#275 = DIRECTION ( 'NONE',  ( -0.000000000000000000, -0.000000000000000000, -1.000000000000000000 ) ) ;
#276 = AXIS2_PLACEMENT_3D ( 'NONE', #178, #133, #223 ) ;
#277 = ORIENTED_EDGE ( 'NONE', *, *, #150, .T. ) ;
#278 = CARTESIAN_POINT ( 'NONE',  ( 0.000000000000000000, 0.000000000000000000, 8.000000000000000000 ) ) ;
#279 = CYLINDRICAL_SURFACE ( 'NONE', #267, 10.00000000000000000 ) ;
#280 = DIRECTION ( 'NONE',  ( 1.000000000000000000, 0.000000000000000000, 0.000000000000000000 ) ) ;
#281 = CIRCLE ( 'NONE', #298, 10.00000000000000000 ) ;
#282 = DATE_AND_TIME ( #18, #157 ) ;
#283 = PERSON_AND_ORGANIZATION ( #273, #287 ) ;
#284 = APPROVAL ( #47, 'NEURÈENÝ' ) ;
#285 = APPROVAL_PERSON_ORGANIZATION ( #302, #284, #142 ) ;
#286 = DIRECTION ( 'NONE',  ( 0.000000000000000000, 0.000000000000000000, 1.000000000000000000 ) ) ;
#287 = ORGANIZATION ( 'NEURÈENÝ', 'NEURÈENÝ', '' ) ;
#288 = ORIENTED_EDGE ( 'NONE', *, *, #173, .F. ) ;
#289 = ORIENTED_EDGE ( 'NONE', *, *, #219, .F. ) ;
#290 = CARTESIAN_POINT ( 'NONE',  ( 0.000000000000000000, 0.000000000000000000, 8.199999999999985079 ) ) ;
#291 = AXIS2_PLACEMENT_3D ( 'NONE', #278, #139, #5 ) ;
#292 = ORIENTED_EDGE ( 'NONE', *, *, #16, .T. ) ;
#293 = FACE_OUTER_BOUND ( 'NONE', #270, .T. ) ;
#294 = CYLINDRICAL_SURFACE ( 'NONE', #243, 10.00000000000000000 ) ;
#295 = DIRECTION ( 'NONE',  ( 0.000000000000000000, 0.000000000000000000, 1.000000000000000000 ) ) ;
#296 = DIRECTION ( 'NONE',  ( -0.000000000000000000, -0.000000000000000000, -1.000000000000000000 ) ) ;
#297 = DIRECTION ( 'NONE',  ( -0.000000000000000000, -0.000000000000000000, -1.000000000000000000 ) ) ;
#298 = AXIS2_PLACEMENT_3D ( 'NONE', #31, #184, #38 ) ;
#299 = ORIENTED_EDGE ( 'NONE', *, *, #213, .F. ) ;
#300 = CARTESIAN_POINT ( 'NONE',  ( 0.000000000000000000, 0.000000000000000000, 638.0000000000000000 ) ) ;
#301 = EDGE_CURVE ( 'NONE', #110, #126, #174, .T. ) ;
#302 = PERSON_AND_ORGANIZATION ( #273, #287 ) ;
#303 = CC_DESIGN_PERSON_AND_ORGANIZATION_ASSIGNMENT ( #283, #305, ( #171 ) ) ;
#304 = APPROVAL_DATE_TIME ( #214, #284 ) ;
#305 = PERSON_AND_ORGANIZATION_ROLE ( 'design_supplier' ) ;
#306 = AXIS2_PLACEMENT_3D ( 'NONE', #163, #286, #262 ) ;
#307 = APPLICATION_PROTOCOL_DEFINITION ( 'international standard', 'config_control_design', 1994, #225 ) ;
ENDSEC;
END-ISO-10303-21;
