ISO-10303-21;
HEADER;
FILE_DESCRIPTION (( 'STEP AP203' ),
    '1' );
FILE_NAME ('f038.STEP',
    '2023-02-12T12:44:44',
    ( '' ),
    ( '' ),
    'SwSTEP 2.0',
    'SolidWorks 2019',
    '' );
FILE_SCHEMA (( 'CONFIG_CONTROL_DESIGN' ));
ENDSEC;

DATA;
#1 = APPROVAL ( #102, 'NEURÈENÝ' ) ;
#2 = ORIENTED_EDGE ( 'NONE', *, *, #215, .T. ) ;
#3 = VECTOR ( 'NONE', #207, 1000.000000000000000 ) ;
#4 = LOCAL_TIME ( 13, 44, 44.00000000000000000, #176 ) ;
#5 = PRODUCT_DEFINITION ( 'NEZNÁMÝ', '', #185, #139 ) ;
#6 = ADVANCED_FACE ( 'NONE', ( #41 ), #127, .T. ) ;
#7 =( NAMED_UNIT ( * ) PLANE_ANGLE_UNIT ( ) SI_UNIT ( $, .RADIAN. ) );
#8 = AXIS2_PLACEMENT_3D ( 'NONE', #42, #128, #106 ) ;
#9 = PERSON_AND_ORGANIZATION ( #177, #196 ) ;
#10 = CARTESIAN_POINT ( 'NONE',  ( 0.000000000000000000, 0.000000000000000000, 0.000000000000000000 ) ) ;
#11 = PERSON_AND_ORGANIZATION ( #177, #196 ) ;
#12 = CARTESIAN_POINT ( 'NONE',  ( 0.000000000000000000, 0.000000000000000000, 3.000000000000000000 ) ) ;
#13 = PERSON_AND_ORGANIZATION ( #177, #196 ) ;
#14 = CIRCLE ( 'NONE', #119, 3.000000000000000444 ) ;
#15 = DIRECTION ( 'NONE',  ( 1.000000000000000000, 0.000000000000000000, 0.000000000000000000 ) ) ;
#16 = EDGE_CURVE ( 'NONE', #47, #40, #204, .T. ) ;
#17 = ORIENTED_EDGE ( 'NONE', *, *, #164, .F. ) ;
#18 =( NAMED_UNIT ( * ) SI_UNIT ( $, .STERADIAN. ) SOLID_ANGLE_UNIT ( ) );
#19 = DATE_AND_TIME ( #197, #142 ) ;
#20 = APPLICATION_CONTEXT ( 'configuration controlled 3d designs of mechanical parts and assemblies' ) ;
#21 = DATE_TIME_ROLE ( 'creation_date' ) ;
#22 = APPROVAL_STATUS ( 'not_yet_approved' ) ;
#23 = LINE ( 'NONE', #28, #216 ) ;
#24 = DIRECTION ( 'NONE',  ( 1.000000000000000000, 0.000000000000000000, 0.000000000000000000 ) ) ;
#25 = AXIS2_PLACEMENT_3D ( 'NONE', #26, #226, #24 ) ;
#26 = CARTESIAN_POINT ( 'NONE',  ( 0.000000000000000000, 0.000000000000000000, 160.0000000000000000 ) ) ;
#27 = CARTESIAN_POINT ( 'NONE',  ( 3.000000000000000444, 3.673940397442060361E-16, 0.000000000000000000 ) ) ;
#28 = CARTESIAN_POINT ( 'NONE',  ( 1.600000000000000089, 1.959434878635765230E-16, 160.0000000000000000 ) ) ;
#29 = ORIENTED_EDGE ( 'NONE', *, *, #16, .F. ) ;
#30 = FACE_OUTER_BOUND ( 'NONE', #74, .T. ) ;
#31 = ADVANCED_FACE ( 'NONE', ( #104, #188 ), #249, .T. ) ;
#32 = LOCAL_TIME ( 13, 44, 44.00000000000000000, #159 ) ;
#33 = EDGE_CURVE ( 'NONE', #140, #47, #198, .T. ) ;
#34 = AXIS2_PLACEMENT_3D ( 'NONE', #52, #137, #149 ) ;
#35 = APPLICATION_PROTOCOL_DEFINITION ( 'international standard', 'config_control_design', 1994, #151 ) ;
#36 = EDGE_CURVE ( 'NONE', #47, #140, #252, .T. ) ;
#37 = DIRECTION ( 'NONE',  ( -0.000000000000000000, -0.000000000000000000, -1.000000000000000000 ) ) ;
#38 = DIRECTION ( 'NONE',  ( -0.000000000000000000, -0.000000000000000000, -1.000000000000000000 ) ) ;
#39 = DATE_AND_TIME ( #187, #32 ) ;
#40 = VERTEX_POINT ( 'NONE', #228 ) ;
#41 = FACE_OUTER_BOUND ( 'NONE', #235, .T. ) ;
#42 = CARTESIAN_POINT ( 'NONE',  ( 0.000000000000000000, 0.000000000000000000, 160.0000000000000000 ) ) ;
#43 = ORIENTED_EDGE ( 'NONE', *, *, #79, .T. ) ;
#44 = PERSON_AND_ORGANIZATION ( #177, #196 ) ;
#45 = DIRECTION ( 'NONE',  ( 1.000000000000000000, 0.000000000000000000, -0.000000000000000000 ) ) ;
#46 = CARTESIAN_POINT ( 'NONE',  ( 0.000000000000000000, 0.000000000000000000, 3.000000000000000000 ) ) ;
#47 = VERTEX_POINT ( 'NONE', #254 ) ;
#48 = AXIS2_PLACEMENT_3D ( 'NONE', #12, #250, #73 ) ;
#49 = FACE_OUTER_BOUND ( 'NONE', #223, .T. ) ;
#50 = PLANE ( 'NONE',  #184 ) ;
#51 = DATE_AND_TIME ( #138, #4 ) ;
#52 = CARTESIAN_POINT ( 'NONE',  ( 0.000000000000000000, 0.000000000000000000, 3.000000000000000000 ) ) ;
#53 = CARTESIAN_POINT ( 'NONE',  ( 0.000000000000000000, 0.000000000000000000, 3.000000000000000000 ) ) ;
#54 = PERSON_AND_ORGANIZATION_ROLE ( 'creator' ) ;
#55 = EDGE_CURVE ( 'NONE', #92, #88, #179, .T. ) ;
#56 = LOCAL_TIME ( 13, 44, 44.00000000000000000, #190 ) ;
#57 = ADVANCED_FACE ( 'NONE', ( #30 ), #96, .T. ) ;
#58 = EDGE_LOOP ( 'NONE', ( #62, #143 ) ) ;
#59 = CALENDAR_DATE ( 2023, 12, 2 ) ;
#60 = ORIENTED_EDGE ( 'NONE', *, *, #222, .T. ) ;
#61 = AXIS2_PLACEMENT_3D ( 'NONE', #195, #203, #175 ) ;
#62 = ORIENTED_EDGE ( 'NONE', *, *, #180, .T. ) ;
#63 = ORIENTED_EDGE ( 'NONE', *, *, #55, .F. ) ;
#64 = CC_DESIGN_SECURITY_CLASSIFICATION ( #218, ( #185 ) ) ;
#65 = EDGE_CURVE ( 'NONE', #211, #92, #219, .T. ) ;
#66 = DIRECTION ( 'NONE',  ( 0.000000000000000000, 0.000000000000000000, 1.000000000000000000 ) ) ;
#67 = ADVANCED_BREP_SHAPE_REPRESENTATION ( 'f038', ( #99, #110 ), #71 ) ;
#68 = AXIS2_PLACEMENT_3D ( 'NONE', #46, #66, #90 ) ;
#69 = ORIENTED_EDGE ( 'NONE', *, *, #79, .F. ) ;
#70 = CC_DESIGN_DATE_AND_TIME_ASSIGNMENT ( #100, #21, ( #5 ) ) ;
#71 =( GEOMETRIC_REPRESENTATION_CONTEXT ( 3 ) GLOBAL_UNCERTAINTY_ASSIGNED_CONTEXT ( ( #217 ) ) GLOBAL_UNIT_ASSIGNED_CONTEXT ( ( #117, #7, #18 ) ) REPRESENTATION_CONTEXT ( 'NONE', 'WORKASPACE' ) );
#72 = DIRECTION ( 'NONE',  ( -1.000000000000000000, 0.000000000000000000, 0.000000000000000000 ) ) ;
#73 = DIRECTION ( 'NONE',  ( 1.000000000000000000, 0.000000000000000000, 0.000000000000000000 ) ) ;
#74 = EDGE_LOOP ( 'NONE', ( #146, #240, #242, #2 ) ) ;
#75 = CARTESIAN_POINT ( 'NONE',  ( 1.600000000000000089, 1.959434878635765230E-16, 160.0000000000000000 ) ) ;
#76 = AXIS2_PLACEMENT_3D ( 'NONE', #193, #191, #15 ) ;
#77 = ORIENTED_EDGE ( 'NONE', *, *, #82, .T. ) ;
#78 = CIRCLE ( 'NONE', #48, 3.000000000000000444 ) ;
#79 = EDGE_CURVE ( 'NONE', #140, #144, #23, .T. ) ;
#80 = COORDINATED_UNIVERSAL_TIME_OFFSET ( 1, 0, .AHEAD. ) ;
#81 = APPROVAL_PERSON_ORGANIZATION ( #124, #153, #157 ) ;
#82 = EDGE_CURVE ( 'NONE', #144, #40, #237, .T. ) ;
#83 = CC_DESIGN_APPROVAL ( #1, ( #185 ) ) ;
#84 = CARTESIAN_POINT ( 'NONE',  ( 0.000000000000000000, 0.000000000000000000, 0.000000000000000000 ) ) ;
#85 = ORIENTED_EDGE ( 'NONE', *, *, #111, .T. ) ;
#86 = DIRECTION ( 'NONE',  ( 0.000000000000000000, 0.000000000000000000, 1.000000000000000000 ) ) ;
#87 = SECURITY_CLASSIFICATION_LEVEL ( 'unclassified' ) ;
#88 = VERTEX_POINT ( 'NONE', #145 ) ;
#89 = CALENDAR_DATE ( 2023, 12, 2 ) ;
#90 = DIRECTION ( 'NONE',  ( 1.000000000000000000, 0.000000000000000000, 0.000000000000000000 ) ) ;
#91 = CC_DESIGN_APPROVAL ( #153, ( #218 ) ) ;
#92 = VERTEX_POINT ( 'NONE', #122 ) ;
#93 = CARTESIAN_POINT ( 'NONE',  ( 0.000000000000000000, 0.000000000000000000, 3.000000000000000000 ) ) ;
#94 = DIRECTION ( 'NONE',  ( 1.000000000000000000, 0.000000000000000000, 0.000000000000000000 ) ) ;
#95 = ORIENTED_EDGE ( 'NONE', *, *, #36, .T. ) ;
#96 = CYLINDRICAL_SURFACE ( 'NONE', #147, 3.000000000000000444 ) ;
#97 = LOCAL_TIME ( 13, 44, 44.00000000000000000, #98 ) ;
#98 = COORDINATED_UNIVERSAL_TIME_OFFSET ( 1, 0, .AHEAD. ) ;
#99 = MANIFOLD_SOLID_BREP ( 'Pøidat vysunutím3', #230 ) ;
#100 = DATE_AND_TIME ( #59, #97 ) ;
#101 = PRODUCT_RELATED_PRODUCT_CATEGORY ( 'detail', '', ( #221 ) ) ;
#102 = APPROVAL_STATUS ( 'not_yet_approved' ) ;
#103 = ORIENTED_EDGE ( 'NONE', *, *, #36, .F. ) ;
#104 = FACE_BOUND ( 'NONE', #243, .T. ) ;
#105 = CARTESIAN_POINT ( 'NONE',  ( -1.600000000000000089, 0.000000000000000000, 160.0000000000000000 ) ) ;
#106 = DIRECTION ( 'NONE',  ( 1.000000000000000000, 0.000000000000000000, -0.000000000000000000 ) ) ;
#107 = PERSON_AND_ORGANIZATION ( #177, #196 ) ;
#108 = ORIENTED_EDGE ( 'NONE', *, *, #65, .F. ) ;
#109 = CYLINDRICAL_SURFACE ( 'NONE', #61, 1.600000000000000089 ) ;
#110 = AXIS2_PLACEMENT_3D ( 'NONE', #84, #86, #163 ) ;
#111 = EDGE_CURVE ( 'NONE', #232, #88, #14, .T. ) ;
#112 = APPROVAL_STATUS ( 'not_yet_approved' ) ;
#113 = AXIS2_PLACEMENT_3D ( 'NONE', #136, #37, #72 ) ;
#114 = CC_DESIGN_PERSON_AND_ORGANIZATION_ASSIGNMENT ( #13, #169, ( #218 ) ) ;
#115 = SHAPE_DEFINITION_REPRESENTATION ( #141, #67 ) ;
#116 = VECTOR ( 'NONE', #174, 1000.000000000000000 ) ;
#117 =( LENGTH_UNIT ( ) NAMED_UNIT ( * ) SI_UNIT ( .MILLI., .METRE. ) );
#118 = CIRCLE ( 'NONE', #34, 1.600000000000000089 ) ;
#119 = AXIS2_PLACEMENT_3D ( 'NONE', #10, #209, #172 ) ;
#120 = AXIS2_PLACEMENT_3D ( 'NONE', #206, #186, #94 ) ;
#121 = MECHANICAL_CONTEXT ( 'NONE', #151, 'mechanical' ) ;
#122 = CARTESIAN_POINT ( 'NONE',  ( -3.000000000000000444, 0.000000000000000000, 3.000000000000000000 ) ) ;
#123 = ORIENTED_EDGE ( 'NONE', *, *, #82, .F. ) ;
#124 = PERSON_AND_ORGANIZATION ( #177, #196 ) ;
#125 = APPROVAL_DATE_TIME ( #39, #153 ) ;
#126 = ADVANCED_FACE ( 'NONE', ( #248 ), #109, .T. ) ;
#127 = CYLINDRICAL_SURFACE ( 'NONE', #113, 1.600000000000000089 ) ;
#128 = DIRECTION ( 'NONE',  ( 0.000000000000000000, 0.000000000000000000, 1.000000000000000000 ) ) ;
#129 = ORIENTED_EDGE ( 'NONE', *, *, #16, .T. ) ;
#130 = LINE ( 'NONE', #194, #3 ) ;
#131 = AXIS2_PLACEMENT_3D ( 'NONE', #93, #212, #181 ) ;
#132 = EDGE_LOOP ( 'NONE', ( #69, #103, #129, #166 ) ) ;
#133 = CYLINDRICAL_SURFACE ( 'NONE', #131, 3.000000000000000444 ) ;
#134 = CARTESIAN_POINT ( 'NONE',  ( 0.000000000000000000, 0.000000000000000000, 0.000000000000000000 ) ) ;
#135 = PERSON_AND_ORGANIZATION ( #177, #196 ) ;
#136 = CARTESIAN_POINT ( 'NONE',  ( 0.000000000000000000, 0.000000000000000000, 160.0000000000000000 ) ) ;
#137 = DIRECTION ( 'NONE',  ( 0.000000000000000000, 0.000000000000000000, 1.000000000000000000 ) ) ;
#138 = CALENDAR_DATE ( 2023, 12, 2 ) ;
#139 = DESIGN_CONTEXT ( 'detailed design', #20, 'design' ) ;
#140 = VERTEX_POINT ( 'NONE', #75 ) ;
#141 = PRODUCT_DEFINITION_SHAPE ( 'NONE', 'NONE',  #5 ) ;
#142 = LOCAL_TIME ( 13, 44, 44.00000000000000000, #80 ) ;
#143 = ORIENTED_EDGE ( 'NONE', *, *, #65, .T. ) ;
#144 = VERTEX_POINT ( 'NONE', #156 ) ;
#145 = CARTESIAN_POINT ( 'NONE',  ( -3.000000000000000444, 0.000000000000000000, 0.000000000000000000 ) ) ;
#146 = ORIENTED_EDGE ( 'NONE', *, *, #222, .F. ) ;
#147 = AXIS2_PLACEMENT_3D ( 'NONE', #53, #38, #165 ) ;
#148 = DIRECTION ( 'NONE',  ( 1.000000000000000000, 0.000000000000000000, -0.000000000000000000 ) ) ;
#149 = DIRECTION ( 'NONE',  ( 1.000000000000000000, 0.000000000000000000, 0.000000000000000000 ) ) ;
#150 = APPROVAL_PERSON_ORGANIZATION ( #239, #1, #183 ) ;
#151 = APPLICATION_CONTEXT ( 'configuration controlled 3d designs of mechanical parts and assemblies' ) ;
#152 = ADVANCED_FACE ( 'NONE', ( #234 ), #50, .F. ) ;
#153 = APPROVAL ( #22, 'NEURÈENÝ' ) ;
#154 = ORIENTED_EDGE ( 'NONE', *, *, #33, .F. ) ;
#155 = AXIS2_PLACEMENT_3D ( 'NONE', #167, #244, #148 ) ;
#156 = CARTESIAN_POINT ( 'NONE',  ( 1.600000000000000089, 1.959434878635765230E-16, 3.000000000000000000 ) ) ;
#157 = APPROVAL_ROLE ( '' ) ;
#158 = CARTESIAN_POINT ( 'NONE',  ( -3.000000000000000444, 0.000000000000000000, 3.000000000000000000 ) ) ;
#159 = COORDINATED_UNIVERSAL_TIME_OFFSET ( 1, 0, .AHEAD. ) ;
#160 = CC_DESIGN_PERSON_AND_ORGANIZATION_ASSIGNMENT ( #44, #162, ( #5 ) ) ;
#161 = CC_DESIGN_PERSON_AND_ORGANIZATION_ASSIGNMENT ( #11, #173, ( #185 ) ) ;
#162 = PERSON_AND_ORGANIZATION_ROLE ( 'creator' ) ;
#163 = DIRECTION ( 'NONE',  ( 1.000000000000000000, 0.000000000000000000, 0.000000000000000000 ) ) ;
#164 = EDGE_CURVE ( 'NONE', #40, #144, #118, .T. ) ;
#165 = DIRECTION ( 'NONE',  ( -1.000000000000000000, 0.000000000000000000, 0.000000000000000000 ) ) ;
#166 = ORIENTED_EDGE ( 'NONE', *, *, #164, .T. ) ;
#167 = CARTESIAN_POINT ( 'NONE',  ( 0.000000000000000000, 0.000000000000000000, 3.000000000000000000 ) ) ;
#168 = DIRECTION ( 'NONE',  ( -0.000000000000000000, -0.000000000000000000, -1.000000000000000000 ) ) ;
#169 = PERSON_AND_ORGANIZATION_ROLE ( 'classification_officer' ) ;
#170 = APPROVAL_DATE_TIME ( #210, #220 ) ;
#171 = DIRECTION ( 'NONE',  ( 0.000000000000000000, 0.000000000000000000, 1.000000000000000000 ) ) ;
#172 = DIRECTION ( 'NONE',  ( 1.000000000000000000, 0.000000000000000000, 0.000000000000000000 ) ) ;
#173 = PERSON_AND_ORGANIZATION_ROLE ( 'design_supplier' ) ;
#174 = DIRECTION ( 'NONE',  ( -0.000000000000000000, -0.000000000000000000, -1.000000000000000000 ) ) ;
#175 = DIRECTION ( 'NONE',  ( -1.000000000000000000, 0.000000000000000000, 0.000000000000000000 ) ) ;
#176 = COORDINATED_UNIVERSAL_TIME_OFFSET ( 1, 0, .AHEAD. ) ;
#177 = PERSON ( 'NEURÈENÝ', 'NEURÈENÝ', 'NEURÈENÝ', ('NEURÈENÝ'), ('NEURÈENÝ'), ('NEURÈENÝ') ) ;
#178 = ADVANCED_FACE ( 'NONE', ( #189 ), #214, .T. ) ;
#179 = LINE ( 'NONE', #158, #202 ) ;
#180 = EDGE_CURVE ( 'NONE', #92, #211, #78, .T. ) ;
#181 = DIRECTION ( 'NONE',  ( -1.000000000000000000, 0.000000000000000000, 0.000000000000000000 ) ) ;
#182 = APPROVAL_PERSON_ORGANIZATION ( #107, #220, #231 ) ;
#183 = APPROVAL_ROLE ( '' ) ;
#184 = AXIS2_PLACEMENT_3D ( 'NONE', #134, #246, #45 ) ;
#185 = PRODUCT_DEFINITION_FORMATION_WITH_SPECIFIED_SOURCE ( 'LIBOVOLNÝ', '', #221, .NOT_KNOWN. ) ;
#186 = DIRECTION ( 'NONE',  ( 0.000000000000000000, 0.000000000000000000, 1.000000000000000000 ) ) ;
#187 = CALENDAR_DATE ( 2023, 12, 2 ) ;
#188 = FACE_OUTER_BOUND ( 'NONE', #58, .T. ) ;
#189 = FACE_OUTER_BOUND ( 'NONE', #238, .T. ) ;
#190 = COORDINATED_UNIVERSAL_TIME_OFFSET ( 1, 0, .AHEAD. ) ;
#191 = DIRECTION ( 'NONE',  ( 0.000000000000000000, 0.000000000000000000, 1.000000000000000000 ) ) ;
#192 = CARTESIAN_POINT ( 'NONE',  ( 0.000000000000000000, 0.000000000000000000, 0.000000000000000000 ) ) ;
#193 = CARTESIAN_POINT ( 'NONE',  ( 0.000000000000000000, 0.000000000000000000, 160.0000000000000000 ) ) ;
#194 = CARTESIAN_POINT ( 'NONE',  ( 3.000000000000000444, 3.673940397442060361E-16, 3.000000000000000000 ) ) ;
#195 = CARTESIAN_POINT ( 'NONE',  ( 0.000000000000000000, 0.000000000000000000, 160.0000000000000000 ) ) ;
#196 = ORGANIZATION ( 'NEURÈENÝ', 'NEURÈENÝ', '' ) ;
#197 = CALENDAR_DATE ( 2023, 12, 2 ) ;
#198 = CIRCLE ( 'NONE', #25, 1.600000000000000089 ) ;
#199 = CC_DESIGN_APPROVAL ( #220, ( #5 ) ) ;
#200 = CC_DESIGN_PERSON_AND_ORGANIZATION_ASSIGNMENT ( #9, #227, ( #221 ) ) ;
#201 = ORIENTED_EDGE ( 'NONE', *, *, #111, .F. ) ;
#202 = VECTOR ( 'NONE', #236, 1000.000000000000000 ) ;
#203 = DIRECTION ( 'NONE',  ( -0.000000000000000000, -0.000000000000000000, -1.000000000000000000 ) ) ;
#204 = LINE ( 'NONE', #105, #116 ) ;
#205 = CC_DESIGN_PERSON_AND_ORGANIZATION_ASSIGNMENT ( #135, #54, ( #185 ) ) ;
#206 = CARTESIAN_POINT ( 'NONE',  ( 0.000000000000000000, 0.000000000000000000, 3.000000000000000000 ) ) ;
#207 = DIRECTION ( 'NONE',  ( -0.000000000000000000, -0.000000000000000000, -1.000000000000000000 ) ) ;
#208 = AXIS2_PLACEMENT_3D ( 'NONE', #192, #171, #229 ) ;
#209 = DIRECTION ( 'NONE',  ( 0.000000000000000000, 0.000000000000000000, 1.000000000000000000 ) ) ;
#210 = DATE_AND_TIME ( #89, #56 ) ;
#211 = VERTEX_POINT ( 'NONE', #233 ) ;
#212 = DIRECTION ( 'NONE',  ( -0.000000000000000000, -0.000000000000000000, -1.000000000000000000 ) ) ;
#213 = APPLICATION_PROTOCOL_DEFINITION ( 'international standard', 'config_control_design', 1994, #20 ) ;
#214 = PLANE ( 'NONE',  #8 ) ;
#215 = EDGE_CURVE ( 'NONE', #88, #232, #253, .T. ) ;
#216 = VECTOR ( 'NONE', #168, 1000.000000000000000 ) ;
#217 = UNCERTAINTY_MEASURE_WITH_UNIT (LENGTH_MEASURE( 1.000000000000000082E-05 ), #117, 'distance_accuracy_value', 'NONE');
#218 = SECURITY_CLASSIFICATION ( '', '', #87 ) ;
#219 = CIRCLE ( 'NONE', #68, 3.000000000000000444 ) ;
#220 = APPROVAL ( #112, 'NEURÈENÝ' ) ;
#221 = PRODUCT ( 'f038', 'f038', '', ( #121 ) ) ;
#222 = EDGE_CURVE ( 'NONE', #211, #232, #130, .T. ) ;
#223 = EDGE_LOOP ( 'NONE', ( #108, #60, #85, #63 ) ) ;
#224 = EDGE_LOOP ( 'NONE', ( #247, #201 ) ) ;
#225 = ORIENTED_EDGE ( 'NONE', *, *, #33, .T. ) ;
#226 = DIRECTION ( 'NONE',  ( 0.000000000000000000, 0.000000000000000000, 1.000000000000000000 ) ) ;
#227 = PERSON_AND_ORGANIZATION_ROLE ( 'design_owner' ) ;
#228 = CARTESIAN_POINT ( 'NONE',  ( -1.600000000000000089, 0.000000000000000000, 3.000000000000000000 ) ) ;
#229 = DIRECTION ( 'NONE',  ( 1.000000000000000000, 0.000000000000000000, 0.000000000000000000 ) ) ;
#230 = CLOSED_SHELL ( 'NONE', ( #6, #251, #57, #31, #152, #126, #178 ) ) ;
#231 = APPROVAL_ROLE ( '' ) ;
#232 = VERTEX_POINT ( 'NONE', #27 ) ;
#233 = CARTESIAN_POINT ( 'NONE',  ( 3.000000000000000444, 3.673940397442060361E-16, 3.000000000000000000 ) ) ;
#234 = FACE_OUTER_BOUND ( 'NONE', #224, .T. ) ;
#235 = EDGE_LOOP ( 'NONE', ( #154, #43, #77, #29 ) ) ;
#236 = DIRECTION ( 'NONE',  ( -0.000000000000000000, -0.000000000000000000, -1.000000000000000000 ) ) ;
#237 = CIRCLE ( 'NONE', #120, 1.600000000000000089 ) ;
#238 = EDGE_LOOP ( 'NONE', ( #95, #225 ) ) ;
#239 = PERSON_AND_ORGANIZATION ( #177, #196 ) ;
#240 = ORIENTED_EDGE ( 'NONE', *, *, #180, .F. ) ;
#241 = CC_DESIGN_DATE_AND_TIME_ASSIGNMENT ( #19, #245, ( #218 ) ) ;
#242 = ORIENTED_EDGE ( 'NONE', *, *, #55, .T. ) ;
#243 = EDGE_LOOP ( 'NONE', ( #17, #123 ) ) ;
#244 = DIRECTION ( 'NONE',  ( 0.000000000000000000, 0.000000000000000000, 1.000000000000000000 ) ) ;
#245 = DATE_TIME_ROLE ( 'classification_date' ) ;
#246 = DIRECTION ( 'NONE',  ( 0.000000000000000000, 0.000000000000000000, 1.000000000000000000 ) ) ;
#247 = ORIENTED_EDGE ( 'NONE', *, *, #215, .F. ) ;
#248 = FACE_OUTER_BOUND ( 'NONE', #132, .T. ) ;
#249 = PLANE ( 'NONE',  #155 ) ;
#250 = DIRECTION ( 'NONE',  ( 0.000000000000000000, 0.000000000000000000, 1.000000000000000000 ) ) ;
#251 = ADVANCED_FACE ( 'NONE', ( #49 ), #133, .T. ) ;
#252 = CIRCLE ( 'NONE', #76, 1.600000000000000089 ) ;
#253 = CIRCLE ( 'NONE', #208, 3.000000000000000444 ) ;
#254 = CARTESIAN_POINT ( 'NONE',  ( -1.600000000000000089, 0.000000000000000000, 160.0000000000000000 ) ) ;
#255 = APPROVAL_DATE_TIME ( #51, #1 ) ;
ENDSEC;
END-ISO-10303-21;
