ISO-10303-21;
HEADER;
FILE_DESCRIPTION (( 'STEP AP203' ),
    '1' );
FILE_NAME ('3379.STEP',
    '2023-02-12T11:06:30',
    ( '' ),
    ( '' ),
    'SwSTEP 2.0',
    'SolidWorks 2019',
    '' );
FILE_SCHEMA (( 'CONFIG_CONTROL_DESIGN' ));
ENDSEC;

DATA;
#1 = PLANE ( 'NONE',  #241 ) ;
#2 = CC_DESIGN_APPROVAL ( #61, ( #244 ) ) ;
#3 = CARTESIAN_POINT ( 'NONE',  ( 6.000000000000000888, 7.347880794884120722E-16, 125.0000000000000000 ) ) ;
#4 = FACE_OUTER_BOUND ( 'NONE', #53, .T. ) ;
#5 = CARTESIAN_POINT ( 'NONE',  ( 0.000000000000000000, 0.000000000000000000, 125.0000000000000000 ) ) ;
#6 = ADVANCED_FACE ( 'NONE', ( #181 ), #76, .T. ) ;
#7 = CARTESIAN_POINT ( 'NONE',  ( -9.000000000000000000, 0.000000000000000000, 7.000000000000000000 ) ) ;
#8 = DIRECTION ( 'NONE',  ( -0.000000000000000000, -0.000000000000000000, -1.000000000000000000 ) ) ;
#9 = PLANE ( 'NONE',  #41 ) ;
#10 = AXIS2_PLACEMENT_3D ( 'NONE', #77, #129, #87 ) ;
#11 = DIRECTION ( 'NONE',  ( 0.000000000000000000, 0.000000000000000000, 1.000000000000000000 ) ) ;
#12 = CIRCLE ( 'NONE', #10, 6.000000000000000888 ) ;
#13 = VERTEX_POINT ( 'NONE', #94 ) ;
#14 = EDGE_LOOP ( 'NONE', ( #202, #192 ) ) ;
#15 = CC_DESIGN_APPROVAL ( #107, ( #200 ) ) ;
#16 = ORIENTED_EDGE ( 'NONE', *, *, #34, .T. ) ;
#17 = LINE ( 'NONE', #7, #31 ) ;
#18 = DIRECTION ( 'NONE',  ( -0.000000000000000000, -0.000000000000000000, -1.000000000000000000 ) ) ;
#19 = DIRECTION ( 'NONE',  ( -0.000000000000000000, -0.000000000000000000, -1.000000000000000000 ) ) ;
#20 = DIRECTION ( 'NONE',  ( -0.000000000000000000, -0.000000000000000000, -1.000000000000000000 ) ) ;
#21 = CARTESIAN_POINT ( 'NONE',  ( 0.000000000000000000, 0.000000000000000000, 0.000000000000000000 ) ) ;
#22 = CARTESIAN_POINT ( 'NONE',  ( 6.000000000000000888, 7.347880794884120722E-16, 125.0000000000000000 ) ) ;
#23 = LINE ( 'NONE', #124, #254 ) ;
#24 = AXIS2_PLACEMENT_3D ( 'NONE', #229, #46, #183 ) ;
#25 = MECHANICAL_CONTEXT ( 'NONE', #251, 'mechanical' ) ;
#26 = ADVANCED_FACE ( 'NONE', ( #4 ), #1, .F. ) ;
#27 = PERSON_AND_ORGANIZATION_ROLE ( 'classification_officer' ) ;
#28 = ORIENTED_EDGE ( 'NONE', *, *, #34, .F. ) ;
#29 = PERSON_AND_ORGANIZATION ( #228, #69 ) ;
#30 = ORIENTED_EDGE ( 'NONE', *, *, #196, .T. ) ;
#31 = VECTOR ( 'NONE', #18, 1000.000000000000000 ) ;
#32 = ORIENTED_EDGE ( 'NONE', *, *, #82, .F. ) ;
#33 = ADVANCED_FACE ( 'NONE', ( #118 ), #113, .T. ) ;
#34 = EDGE_CURVE ( 'NONE', #215, #138, #85, .T. ) ;
#35 = DIRECTION ( 'NONE',  ( 1.000000000000000000, 0.000000000000000000, -0.000000000000000000 ) ) ;
#36 = CARTESIAN_POINT ( 'NONE',  ( 0.000000000000000000, 0.000000000000000000, 7.000000000000000000 ) ) ;
#37 = CC_DESIGN_APPROVAL ( #117, ( #248 ) ) ;
#38 = DIRECTION ( 'NONE',  ( -0.000000000000000000, -0.000000000000000000, -1.000000000000000000 ) ) ;
#39 = CYLINDRICAL_SURFACE ( 'NONE', #224, 9.000000000000000000 ) ;
#40 = DIRECTION ( 'NONE',  ( 1.000000000000000000, 0.000000000000000000, 0.000000000000000000 ) ) ;
#41 = AXIS2_PLACEMENT_3D ( 'NONE', #43, #11, #162 ) ;
#42 = CARTESIAN_POINT ( 'NONE',  ( -6.000000000000000888, 0.000000000000000000, 125.0000000000000000 ) ) ;
#43 = CARTESIAN_POINT ( 'NONE',  ( 0.000000000000000000, 0.000000000000000000, 7.000000000000000000 ) ) ;
#44 = AXIS2_PLACEMENT_3D ( 'NONE', #199, #219, #139 ) ;
#45 = EDGE_CURVE ( 'NONE', #50, #110, #128, .T. ) ;
#46 = DIRECTION ( 'NONE',  ( 0.000000000000000000, 0.000000000000000000, 1.000000000000000000 ) ) ;
#47 = DATE_AND_TIME ( #135, #149 ) ;
#48 = UNCERTAINTY_MEASURE_WITH_UNIT (LENGTH_MEASURE( 1.000000000000000082E-05 ), #127, 'distance_accuracy_value', 'NONE');
#49 = COORDINATED_UNIVERSAL_TIME_OFFSET ( 1, 0, .AHEAD. ) ;
#50 = VERTEX_POINT ( 'NONE', #54 ) ;
#51 = APPROVAL_DATE_TIME ( #47, #107 ) ;
#52 = ADVANCED_FACE ( 'NONE', ( #157 ), #175, .T. ) ;
#53 = EDGE_LOOP ( 'NONE', ( #134, #93 ) ) ;
#54 = CARTESIAN_POINT ( 'NONE',  ( 6.000000000000000888, 7.347880794884120722E-16, 7.000000000000000000 ) ) ;
#55 = ORIENTED_EDGE ( 'NONE', *, *, #174, .T. ) ;
#56 = AXIS2_PLACEMENT_3D ( 'NONE', #159, #221, #35 ) ;
#57 = DIRECTION ( 'NONE',  ( 0.000000000000000000, 0.000000000000000000, 1.000000000000000000 ) ) ;
#58 = VERTEX_POINT ( 'NONE', #81 ) ;
#59 = PLANE ( 'NONE',  #56 ) ;
#60 = APPLICATION_PROTOCOL_DEFINITION ( 'international standard', 'config_control_design', 1994, #251 ) ;
#61 = APPROVAL ( #64, 'NEURÈENÝ' ) ;
#62 = LINE ( 'NONE', #22, #234 ) ;
#63 = DATE_AND_TIME ( #88, #108 ) ;
#64 = APPROVAL_STATUS ( 'not_yet_approved' ) ;
#65 = DIRECTION ( 'NONE',  ( -0.000000000000000000, -0.000000000000000000, -1.000000000000000000 ) ) ;
#66 = APPROVAL_DATE_TIME ( #111, #117 ) ;
#67 = APPROVAL_ROLE ( '' ) ;
#68 = CALENDAR_DATE ( 2023, 12, 2 ) ;
#69 = ORGANIZATION ( 'NEURÈENÝ', 'NEURÈENÝ', '' ) ;
#70 = PERSON_AND_ORGANIZATION ( #228, #69 ) ;
#71 = ORIENTED_EDGE ( 'NONE', *, *, #106, .T. ) ;
#72 = CC_DESIGN_PERSON_AND_ORGANIZATION_ASSIGNMENT ( #104, #92, ( #244 ) ) ;
#73 = PERSON_AND_ORGANIZATION_ROLE ( 'creator' ) ;
#74 = EDGE_LOOP ( 'NONE', ( #141, #28, #30, #220 ) ) ;
#75 = CIRCLE ( 'NONE', #169, 6.000000000000000888 ) ;
#76 = CYLINDRICAL_SURFACE ( 'NONE', #194, 9.000000000000000000 ) ;
#77 = CARTESIAN_POINT ( 'NONE',  ( 0.000000000000000000, 0.000000000000000000, 7.000000000000000000 ) ) ;
#78 = EDGE_LOOP ( 'NONE', ( #16, #114 ) ) ;
#79 = EDGE_LOOP ( 'NONE', ( #109, #71, #55, #32 ) ) ;
#80 = APPLICATION_CONTEXT ( 'configuration controlled 3d designs of mechanical parts and assemblies' ) ;
#81 = CARTESIAN_POINT ( 'NONE',  ( -9.000000000000000000, 0.000000000000000000, 7.000000000000000000 ) ) ;
#82 = EDGE_CURVE ( 'NONE', #58, #179, #17, .T. ) ;
#83 = DIRECTION ( 'NONE',  ( 0.000000000000000000, 0.000000000000000000, 1.000000000000000000 ) ) ;
#84 = PERSON_AND_ORGANIZATION ( #228, #69 ) ;
#85 = CIRCLE ( 'NONE', #89, 6.000000000000000888 ) ;
#86 = CARTESIAN_POINT ( 'NONE',  ( 9.000000000000000000, 1.102182119232617714E-15, 7.000000000000000000 ) ) ;
#87 = DIRECTION ( 'NONE',  ( 1.000000000000000000, 0.000000000000000000, 0.000000000000000000 ) ) ;
#88 = CALENDAR_DATE ( 2023, 12, 2 ) ;
#89 = AXIS2_PLACEMENT_3D ( 'NONE', #222, #121, #238 ) ;
#90 = CC_DESIGN_DATE_AND_TIME_ASSIGNMENT ( #189, #210, ( #248 ) ) ;
#91 = DATE_TIME_ROLE ( 'creation_date' ) ;
#92 = PERSON_AND_ORGANIZATION_ROLE ( 'creator' ) ;
#93 = ORIENTED_EDGE ( 'NONE', *, *, #174, .F. ) ;
#94 = CARTESIAN_POINT ( 'NONE',  ( 9.000000000000000000, 1.102182119232617714E-15, 0.000000000000000000 ) ) ;
#95 = DIRECTION ( 'NONE',  ( 0.000000000000000000, 0.000000000000000000, 1.000000000000000000 ) ) ;
#96 = APPROVAL_PERSON_ORGANIZATION ( #70, #107, #67 ) ;
#97 = CARTESIAN_POINT ( 'NONE',  ( 0.000000000000000000, 0.000000000000000000, 7.000000000000000000 ) ) ;
#98 = CARTESIAN_POINT ( 'NONE',  ( -6.000000000000000888, 0.000000000000000000, 7.000000000000000000 ) ) ;
#99 = CARTESIAN_POINT ( 'NONE',  ( 0.000000000000000000, 0.000000000000000000, 125.0000000000000000 ) ) ;
#100 = CARTESIAN_POINT ( 'NONE',  ( 0.000000000000000000, 0.000000000000000000, 7.000000000000000000 ) ) ;
#101 = DIRECTION ( 'NONE',  ( 0.000000000000000000, 0.000000000000000000, 1.000000000000000000 ) ) ;
#102 =( NAMED_UNIT ( * ) SI_UNIT ( $, .STERADIAN. ) SOLID_ANGLE_UNIT ( ) );
#103 = FACE_OUTER_BOUND ( 'NONE', #14, .T. ) ;
#104 = PERSON_AND_ORGANIZATION ( #228, #69 ) ;
#105 = PERSON_AND_ORGANIZATION ( #228, #69 ) ;
#106 = EDGE_CURVE ( 'NONE', #158, #13, #201, .T. ) ;
#107 = APPROVAL ( #132, 'NEURÈENÝ' ) ;
#108 = LOCAL_TIME ( 12, 6, 30.00000000000000000, #226 ) ;
#109 = ORIENTED_EDGE ( 'NONE', *, *, #165, .F. ) ;
#110 = VERTEX_POINT ( 'NONE', #98 ) ;
#111 = DATE_AND_TIME ( #235, #182 ) ;
#112 = CC_DESIGN_SECURITY_CLASSIFICATION ( #248, ( #200 ) ) ;
#113 = CYLINDRICAL_SURFACE ( 'NONE', #176, 6.000000000000000888 ) ;
#114 = ORIENTED_EDGE ( 'NONE', *, *, #115, .T. ) ;
#115 = EDGE_CURVE ( 'NONE', #138, #215, #75, .T. ) ;
#116 = AXIS2_PLACEMENT_3D ( 'NONE', #245, #237, #243 ) ;
#117 = APPROVAL ( #167, 'NEURÈENÝ' ) ;
#118 = FACE_OUTER_BOUND ( 'NONE', #213, .T. ) ;
#119 = AXIS2_PLACEMENT_3D ( 'NONE', #227, #206, #188 ) ;
#120 = PRODUCT_DEFINITION_SHAPE ( 'NONE', 'NONE',  #244 ) ;
#121 = DIRECTION ( 'NONE',  ( 0.000000000000000000, 0.000000000000000000, 1.000000000000000000 ) ) ;
#122 = DIRECTION ( 'NONE',  ( -0.000000000000000000, -0.000000000000000000, -1.000000000000000000 ) ) ;
#123 = ADVANCED_FACE ( 'NONE', ( #218 ), #59, .T. ) ;
#124 = CARTESIAN_POINT ( 'NONE',  ( -6.000000000000000888, 0.000000000000000000, 125.0000000000000000 ) ) ;
#125 = CIRCLE ( 'NONE', #170, 9.000000000000000000 ) ;
#126 = DIRECTION ( 'NONE',  ( 0.000000000000000000, 0.000000000000000000, 1.000000000000000000 ) ) ;
#127 =( LENGTH_UNIT ( ) NAMED_UNIT ( * ) SI_UNIT ( .MILLI., .METRE. ) );
#128 = CIRCLE ( 'NONE', #116, 6.000000000000000888 ) ;
#129 = DIRECTION ( 'NONE',  ( 0.000000000000000000, 0.000000000000000000, 1.000000000000000000 ) ) ;
#130 = ADVANCED_FACE ( 'NONE', ( #198 ), #39, .T. ) ;
#131 = CC_DESIGN_DATE_AND_TIME_ASSIGNMENT ( #151, #91, ( #244 ) ) ;
#132 = APPROVAL_STATUS ( 'not_yet_approved' ) ;
#133 = LOCAL_TIME ( 12, 6, 30.00000000000000000, #236 ) ;
#134 = ORIENTED_EDGE ( 'NONE', *, *, #216, .F. ) ;
#135 = CALENDAR_DATE ( 2023, 12, 2 ) ;
#136 = CLOSED_SHELL ( 'NONE', ( #33, #6, #130, #253, #26, #52, #123 ) ) ;
#137 = MANIFOLD_SOLID_BREP ( 'Pøidat vysunutím3', #136 ) ;
#138 = VERTEX_POINT ( 'NONE', #3 ) ;
#139 = DIRECTION ( 'NONE',  ( -1.000000000000000000, 0.000000000000000000, 0.000000000000000000 ) ) ;
#140 = CARTESIAN_POINT ( 'NONE',  ( 0.000000000000000000, 0.000000000000000000, 0.000000000000000000 ) ) ;
#141 = ORIENTED_EDGE ( 'NONE', *, *, #204, .F. ) ;
#142 = DIRECTION ( 'NONE',  ( 1.000000000000000000, 0.000000000000000000, 0.000000000000000000 ) ) ;
#143 = DIRECTION ( 'NONE',  ( -1.000000000000000000, 0.000000000000000000, 0.000000000000000000 ) ) ;
#144 = DIRECTION ( 'NONE',  ( 1.000000000000000000, 0.000000000000000000, 0.000000000000000000 ) ) ;
#145 = PERSON_AND_ORGANIZATION_ROLE ( 'design_owner' ) ;
#146 = ORIENTED_EDGE ( 'NONE', *, *, #204, .T. ) ;
#147 = LOCAL_TIME ( 12, 6, 30.00000000000000000, #49 ) ;
#148 = PERSON_AND_ORGANIZATION_ROLE ( 'design_supplier' ) ;
#149 = LOCAL_TIME ( 12, 6, 30.00000000000000000, #232 ) ;
#150 = ORIENTED_EDGE ( 'NONE', *, *, #82, .T. ) ;
#151 = DATE_AND_TIME ( #191, #147 ) ;
#152 = ORIENTED_EDGE ( 'NONE', *, *, #45, .F. ) ;
#153 = ADVANCED_BREP_SHAPE_REPRESENTATION ( '3379', ( #137, #242 ), #160 ) ;
#154 = ORIENTED_EDGE ( 'NONE', *, *, #115, .F. ) ;
#155 = CIRCLE ( 'NONE', #24, 9.000000000000000000 ) ;
#156 = EDGE_CURVE ( 'NONE', #110, #50, #12, .T. ) ;
#157 = FACE_OUTER_BOUND ( 'NONE', #74, .T. ) ;
#158 = VERTEX_POINT ( 'NONE', #86 ) ;
#159 = CARTESIAN_POINT ( 'NONE',  ( 0.000000000000000000, 0.000000000000000000, 125.0000000000000000 ) ) ;
#160 =( GEOMETRIC_REPRESENTATION_CONTEXT ( 3 ) GLOBAL_UNCERTAINTY_ASSIGNED_CONTEXT ( ( #48 ) ) GLOBAL_UNIT_ASSIGNED_CONTEXT ( ( #127, #246, #102 ) ) REPRESENTATION_CONTEXT ( 'NONE', 'WORKASPACE' ) );
#161 = CARTESIAN_POINT ( 'NONE',  ( 9.000000000000000000, 1.102182119232617714E-15, 7.000000000000000000 ) ) ;
#162 = DIRECTION ( 'NONE',  ( 1.000000000000000000, 0.000000000000000000, -0.000000000000000000 ) ) ;
#163 = APPLICATION_PROTOCOL_DEFINITION ( 'international standard', 'config_control_design', 1994, #80 ) ;
#164 = DIRECTION ( 'NONE',  ( 1.000000000000000000, 0.000000000000000000, 0.000000000000000000 ) ) ;
#165 = EDGE_CURVE ( 'NONE', #158, #58, #155, .T. ) ;
#166 = APPROVAL_DATE_TIME ( #63, #61 ) ;
#167 = APPROVAL_STATUS ( 'not_yet_approved' ) ;
#168 = ORIENTED_EDGE ( 'NONE', *, *, #196, .F. ) ;
#169 = AXIS2_PLACEMENT_3D ( 'NONE', #5, #95, #142 ) ;
#170 = AXIS2_PLACEMENT_3D ( 'NONE', #207, #83, #164 ) ;
#171 = COORDINATED_UNIVERSAL_TIME_OFFSET ( 1, 0, .AHEAD. ) ;
#172 = ORIENTED_EDGE ( 'NONE', *, *, #223, .F. ) ;
#173 = ORIENTED_EDGE ( 'NONE', *, *, #156, .F. ) ;
#174 = EDGE_CURVE ( 'NONE', #13, #179, #195, .T. ) ;
#175 = CYLINDRICAL_SURFACE ( 'NONE', #44, 6.000000000000000888 ) ;
#176 = AXIS2_PLACEMENT_3D ( 'NONE', #99, #38, #143 ) ;
#177 = DIRECTION ( 'NONE',  ( -1.000000000000000000, 0.000000000000000000, 0.000000000000000000 ) ) ;
#178 = CIRCLE ( 'NONE', #186, 9.000000000000000000 ) ;
#179 = VERTEX_POINT ( 'NONE', #225 ) ;
#180 = DIRECTION ( 'NONE',  ( 1.000000000000000000, 0.000000000000000000, -0.000000000000000000 ) ) ;
#181 = FACE_OUTER_BOUND ( 'NONE', #79, .T. ) ;
#182 = LOCAL_TIME ( 12, 6, 30.00000000000000000, #171 ) ;
#183 = DIRECTION ( 'NONE',  ( 1.000000000000000000, 0.000000000000000000, 0.000000000000000000 ) ) ;
#184 = CC_DESIGN_PERSON_AND_ORGANIZATION_ASSIGNMENT ( #29, #27, ( #248 ) ) ;
#185 = VECTOR ( 'NONE', #19, 1000.000000000000000 ) ;
#186 = AXIS2_PLACEMENT_3D ( 'NONE', #100, #126, #144 ) ;
#187 = PRODUCT_RELATED_PRODUCT_CATEGORY ( 'detail', '', ( #239 ) ) ;
#188 = DIRECTION ( 'NONE',  ( 1.000000000000000000, 0.000000000000000000, 0.000000000000000000 ) ) ;
#189 = DATE_AND_TIME ( #68, #133 ) ;
#190 = APPROVAL_ROLE ( '' ) ;
#191 = CALENDAR_DATE ( 2023, 12, 2 ) ;
#192 = ORIENTED_EDGE ( 'NONE', *, *, #165, .T. ) ;
#193 = ORIENTED_EDGE ( 'NONE', *, *, #106, .F. ) ;
#194 = AXIS2_PLACEMENT_3D ( 'NONE', #36, #20, #240 ) ;
#195 = CIRCLE ( 'NONE', #119, 9.000000000000000000 ) ;
#196 = EDGE_CURVE ( 'NONE', #215, #110, #23, .T. ) ;
#197 = EDGE_LOOP ( 'NONE', ( #193, #172, #150, #233 ) ) ;
#198 = FACE_OUTER_BOUND ( 'NONE', #197, .T. ) ;
#199 = CARTESIAN_POINT ( 'NONE',  ( 0.000000000000000000, 0.000000000000000000, 125.0000000000000000 ) ) ;
#200 = PRODUCT_DEFINITION_FORMATION_WITH_SPECIFIED_SOURCE ( 'LIBOVOLNÝ', '', #239, .NOT_KNOWN. ) ;
#201 = LINE ( 'NONE', #161, #185 ) ;
#202 = ORIENTED_EDGE ( 'NONE', *, *, #223, .T. ) ;
#203 = APPROVAL_PERSON_ORGANIZATION ( #252, #117, #190 ) ;
#204 = EDGE_CURVE ( 'NONE', #138, #50, #62, .T. ) ;
#205 = CC_DESIGN_PERSON_AND_ORGANIZATION_ASSIGNMENT ( #84, #145, ( #239 ) ) ;
#206 = DIRECTION ( 'NONE',  ( 0.000000000000000000, 0.000000000000000000, 1.000000000000000000 ) ) ;
#207 = CARTESIAN_POINT ( 'NONE',  ( 0.000000000000000000, 0.000000000000000000, 0.000000000000000000 ) ) ;
#208 = DESIGN_CONTEXT ( 'detailed design', #80, 'design' ) ;
#209 = SECURITY_CLASSIFICATION_LEVEL ( 'unclassified' ) ;
#210 = DATE_TIME_ROLE ( 'classification_date' ) ;
#211 = APPROVAL_PERSON_ORGANIZATION ( #247, #61, #249 ) ;
#212 = SHAPE_DEFINITION_REPRESENTATION ( #120, #153 ) ;
#213 = EDGE_LOOP ( 'NONE', ( #154, #146, #255, #168 ) ) ;
#214 = PERSON_AND_ORGANIZATION ( #228, #69 ) ;
#215 = VERTEX_POINT ( 'NONE', #42 ) ;
#216 = EDGE_CURVE ( 'NONE', #179, #13, #125, .T. ) ;
#217 = EDGE_LOOP ( 'NONE', ( #173, #152 ) ) ;
#218 = FACE_OUTER_BOUND ( 'NONE', #78, .T. ) ;
#219 = DIRECTION ( 'NONE',  ( -0.000000000000000000, -0.000000000000000000, -1.000000000000000000 ) ) ;
#220 = ORIENTED_EDGE ( 'NONE', *, *, #156, .T. ) ;
#221 = DIRECTION ( 'NONE',  ( 0.000000000000000000, 0.000000000000000000, 1.000000000000000000 ) ) ;
#222 = CARTESIAN_POINT ( 'NONE',  ( 0.000000000000000000, 0.000000000000000000, 125.0000000000000000 ) ) ;
#223 = EDGE_CURVE ( 'NONE', #58, #158, #178, .T. ) ;
#224 = AXIS2_PLACEMENT_3D ( 'NONE', #97, #122, #177 ) ;
#225 = CARTESIAN_POINT ( 'NONE',  ( -9.000000000000000000, 0.000000000000000000, 0.000000000000000000 ) ) ;
#226 = COORDINATED_UNIVERSAL_TIME_OFFSET ( 1, 0, .AHEAD. ) ;
#227 = CARTESIAN_POINT ( 'NONE',  ( 0.000000000000000000, 0.000000000000000000, 0.000000000000000000 ) ) ;
#228 = PERSON ( 'NEURÈENÝ', 'NEURÈENÝ', 'NEURÈENÝ', ('NEURÈENÝ'), ('NEURÈENÝ'), ('NEURÈENÝ') ) ;
#229 = CARTESIAN_POINT ( 'NONE',  ( 0.000000000000000000, 0.000000000000000000, 7.000000000000000000 ) ) ;
#230 = CC_DESIGN_PERSON_AND_ORGANIZATION_ASSIGNMENT ( #214, #73, ( #200 ) ) ;
#231 = CC_DESIGN_PERSON_AND_ORGANIZATION_ASSIGNMENT ( #105, #148, ( #200 ) ) ;
#232 = COORDINATED_UNIVERSAL_TIME_OFFSET ( 1, 0, .AHEAD. ) ;
#233 = ORIENTED_EDGE ( 'NONE', *, *, #216, .T. ) ;
#234 = VECTOR ( 'NONE', #8, 1000.000000000000000 ) ;
#235 = CALENDAR_DATE ( 2023, 12, 2 ) ;
#236 = COORDINATED_UNIVERSAL_TIME_OFFSET ( 1, 0, .AHEAD. ) ;
#237 = DIRECTION ( 'NONE',  ( 0.000000000000000000, 0.000000000000000000, 1.000000000000000000 ) ) ;
#238 = DIRECTION ( 'NONE',  ( 1.000000000000000000, 0.000000000000000000, 0.000000000000000000 ) ) ;
#239 = PRODUCT ( '3379', '3379', '', ( #25 ) ) ;
#240 = DIRECTION ( 'NONE',  ( -1.000000000000000000, 0.000000000000000000, 0.000000000000000000 ) ) ;
#241 = AXIS2_PLACEMENT_3D ( 'NONE', #140, #57, #180 ) ;
#242 = AXIS2_PLACEMENT_3D ( 'NONE', #21, #101, #40 ) ;
#243 = DIRECTION ( 'NONE',  ( 1.000000000000000000, 0.000000000000000000, 0.000000000000000000 ) ) ;
#244 = PRODUCT_DEFINITION ( 'NEZNÁMÝ', '', #200, #208 ) ;
#245 = CARTESIAN_POINT ( 'NONE',  ( 0.000000000000000000, 0.000000000000000000, 7.000000000000000000 ) ) ;
#246 =( NAMED_UNIT ( * ) PLANE_ANGLE_UNIT ( ) SI_UNIT ( $, .RADIAN. ) );
#247 = PERSON_AND_ORGANIZATION ( #228, #69 ) ;
#248 = SECURITY_CLASSIFICATION ( '', '', #209 ) ;
#249 = APPROVAL_ROLE ( '' ) ;
#250 = FACE_BOUND ( 'NONE', #217, .T. ) ;
#251 = APPLICATION_CONTEXT ( 'configuration controlled 3d designs of mechanical parts and assemblies' ) ;
#252 = PERSON_AND_ORGANIZATION ( #228, #69 ) ;
#253 = ADVANCED_FACE ( 'NONE', ( #250, #103 ), #9, .T. ) ;
#254 = VECTOR ( 'NONE', #65, 1000.000000000000000 ) ;
#255 = ORIENTED_EDGE ( 'NONE', *, *, #45, .T. ) ;
ENDSEC;
END-ISO-10303-21;
