ISO-10303-21;
HEADER;
FILE_DESCRIPTION (( 'STEP AP203' ),
    '1' );
FILE_NAME ('011e.STEP',
    '2022-07-07T09:47:03',
    ( '' ),
    ( '' ),
    'SwSTEP 2.0',
    'SolidWorks 2019',
    '' );
FILE_SCHEMA (( 'CONFIG_CONTROL_DESIGN' ));
ENDSEC;

DATA;
#1 = ADVANCED_FACE ( 'NONE', ( #87 ), #133, .F. ) ;
#2 = PERSON_AND_ORGANIZATION ( #191, #175 ) ;
#3 = CIRCLE ( 'NONE', #288, 6.000000000000000888 ) ;
#4 = CIRCLE ( 'NONE', #210, 0.1999999999999996503 ) ;
#5 = EDGE_LOOP ( 'NONE', ( #190, #88, #192, #123 ) ) ;
#6 = EDGE_LOOP ( 'NONE', ( #236, #290 ) ) ;
#7 =( GEOMETRIC_REPRESENTATION_CONTEXT ( 3 ) GLOBAL_UNCERTAINTY_ASSIGNED_CONTEXT ( ( #92 ) ) GLOBAL_UNIT_ASSIGNED_CONTEXT ( ( #35, #194, #151 ) ) REPRESENTATION_CONTEXT ( 'NONE', 'WORKASPACE' ) );
#8 = ORIENTED_EDGE ( 'NONE', *, *, #195, .T. ) ;
#9 = DIRECTION ( 'NONE',  ( 0.000000000000000000, 0.000000000000000000, 1.000000000000000000 ) ) ;
#10 = APPLICATION_PROTOCOL_DEFINITION ( 'international standard', 'config_control_design', 1994, #280 ) ;
#11 = DIRECTION ( 'NONE',  ( 1.000000000000000000, 0.000000000000000000, 0.000000000000000000 ) ) ;
#12 = DIRECTION ( 'NONE',  ( -0.000000000000000000, -0.000000000000000000, -1.000000000000000000 ) ) ;
#13 = EDGE_CURVE ( 'NONE', #131, #122, #118, .T. ) ;
#14 = DATE_AND_TIME ( #223, #95 ) ;
#15 = AXIS2_PLACEMENT_3D ( 'NONE', #159, #301, #135 ) ;
#16 = AXIS2_PLACEMENT_3D ( 'NONE', #302, #116, #45 ) ;
#17 = PERSON_AND_ORGANIZATION_ROLE ( 'creator' ) ;
#18 = ADVANCED_FACE ( 'NONE', ( #298 ), #261, .F. ) ;
#19 = EDGE_LOOP ( 'NONE', ( #141, #279, #52, #176 ) ) ;
#20 = DIRECTION ( 'NONE',  ( 0.000000000000000000, -1.000000000000000000, 0.000000000000000000 ) ) ;
#21 = DIRECTION ( 'NONE',  ( 1.000000000000000000, 0.000000000000000000, 0.000000000000000000 ) ) ;
#22 = AXIS2_PLACEMENT_3D ( 'NONE', #277, #136, #11 ) ;
#23 = PLANE ( 'NONE',  #75 ) ;
#24 = CYLINDRICAL_SURFACE ( 'NONE', #27, 9.000000000000000000 ) ;
#25 = CARTESIAN_POINT ( 'NONE',  ( 0.000000000000000000, 0.000000000000000000, 7.000000000000000000 ) ) ;
#26 = CARTESIAN_POINT ( 'NONE',  ( 0.000000000000000000, 0.000000000000000000, 0.000000000000000000 ) ) ;
#27 = AXIS2_PLACEMENT_3D ( 'NONE', #258, #200, #67 ) ;
#28 = AXIS2_PLACEMENT_3D ( 'NONE', #60, #152, #253 ) ;
#29 = ORIENTED_EDGE ( 'NONE', *, *, #257, .T. ) ;
#30 = DATE_AND_TIME ( #98, #134 ) ;
#31 = CIRCLE ( 'NONE', #262, 9.000000000000000000 ) ;
#32 = CC_DESIGN_PERSON_AND_ORGANIZATION_ASSIGNMENT ( #271, #172, ( #235 ) ) ;
#33 = DIRECTION ( 'NONE',  ( 1.000000000000000000, 0.000000000000000000, 0.000000000000000000 ) ) ;
#34 = CARTESIAN_POINT ( 'NONE',  ( 0.000000000000000000, 0.000000000000000000, 167.0000000000000000 ) ) ;
#35 =( LENGTH_UNIT ( ) NAMED_UNIT ( * ) SI_UNIT ( .MILLI., .METRE. ) );
#36 = PERSON_AND_ORGANIZATION ( #191, #175 ) ;
#37 = EDGE_CURVE ( 'NONE', #71, #216, #3, .T. ) ;
#38 = FACE_OUTER_BOUND ( 'NONE', #178, .T. ) ;
#39 = ORIENTED_EDGE ( 'NONE', *, *, #263, .F. ) ;
#40 = LINE ( 'NONE', #179, #112 ) ;
#41 = ORIENTED_EDGE ( 'NONE', *, *, #257, .F. ) ;
#42 = CARTESIAN_POINT ( 'NONE',  ( 9.000000000000000000, 1.102182119232617714E-15, 7.000000000000000000 ) ) ;
#43 = CARTESIAN_POINT ( 'NONE',  ( -6.000000000000000888, 0.000000000000000000, 167.0000000000000000 ) ) ;
#44 = APPROVAL_PERSON_ORGANIZATION ( #284, #140, #162 ) ;
#45 = DIRECTION ( 'NONE',  ( 1.000000000000000000, 0.000000000000000000, 0.000000000000000000 ) ) ;
#46 = CARTESIAN_POINT ( 'NONE',  ( 0.000000000000000000, 0.000000000000000000, 7.200000000000011724 ) ) ;
#47 = CC_DESIGN_APPROVAL ( #140, ( #282 ) ) ;
#48 = MANIFOLD_SOLID_BREP ( 'Zaoblit1', #158 ) ;
#49 = EDGE_LOOP ( 'NONE', ( #203, #187 ) ) ;
#50 = DATE_AND_TIME ( #264, #184 ) ;
#51 = AXIS2_PLACEMENT_3D ( 'NONE', #104, #114, #204 ) ;
#52 = ORIENTED_EDGE ( 'NONE', *, *, #206, .T. ) ;
#53 = APPROVAL_DATE_TIME ( #50, #140 ) ;
#54 = ORIENTED_EDGE ( 'NONE', *, *, #73, .T. ) ;
#55 = ADVANCED_FACE ( 'NONE', ( #115 ), #24, .T. ) ;
#56 = CARTESIAN_POINT ( 'NONE',  ( -9.000000000000000000, 0.000000000000000000, 7.000000000000000000 ) ) ;
#57 = DATE_AND_TIME ( #267, #225 ) ;
#58 = DIRECTION ( 'NONE',  ( 0.000000000000000000, 0.000000000000000000, 1.000000000000000000 ) ) ;
#59 = CYLINDRICAL_SURFACE ( 'NONE', #197, 6.000000000000000888 ) ;
#60 = CARTESIAN_POINT ( 'NONE',  ( 0.000000000000000000, 0.000000000000000000, 7.000000000000000000 ) ) ;
#61 = DIRECTION ( 'NONE',  ( 1.000000000000000000, 0.000000000000000000, 0.000000000000000000 ) ) ;
#62 = DIRECTION ( 'NONE',  ( 0.000000000000000000, 0.000000000000000000, 1.000000000000000000 ) ) ;
#63 = DIRECTION ( 'NONE',  ( -0.000000000000000000, -0.000000000000000000, -1.000000000000000000 ) ) ;
#64 = DIRECTION ( 'NONE',  ( 1.000000000000000000, 0.000000000000000000, -0.000000000000000000 ) ) ;
#65 = CARTESIAN_POINT ( 'NONE',  ( -9.000000000000000000, 0.000000000000000000, 0.000000000000000000 ) ) ;
#66 = EDGE_CURVE ( 'NONE', #216, #71, #213, .T. ) ;
#67 = DIRECTION ( 'NONE',  ( -1.000000000000000000, 0.000000000000000000, 0.000000000000000000 ) ) ;
#68 = CIRCLE ( 'NONE', #51, 6.000000000000000888 ) ;
#69 = APPROVAL ( #295, 'NEURÈENÝ' ) ;
#70 = CC_DESIGN_SECURITY_CLASSIFICATION ( #282, ( #127 ) ) ;
#71 = VERTEX_POINT ( 'NONE', #43 ) ;
#72 = COORDINATED_UNIVERSAL_TIME_OFFSET ( 1, 0, .AHEAD. ) ;
#73 = EDGE_CURVE ( 'NONE', #71, #243, #113, .T. ) ;
#74 = VERTEX_POINT ( 'NONE', #93 ) ;
#75 = AXIS2_PLACEMENT_3D ( 'NONE', #273, #155, #89 ) ;
#76 = ORIENTED_EDGE ( 'NONE', *, *, #73, .F. ) ;
#77 = CC_DESIGN_DATE_AND_TIME_ASSIGNMENT ( #287, #217, ( #282 ) ) ;
#78 = CARTESIAN_POINT ( 'NONE',  ( 6.000000000000000888, 7.347880794884120722E-16, 7.200000000000011724 ) ) ;
#79 = APPROVAL_STATUS ( 'not_yet_approved' ) ;
#80 = VECTOR ( 'NONE', #303, 1000.000000000000000 ) ;
#81 = CIRCLE ( 'NONE', #242, 9.000000000000000000 ) ;
#82 = CARTESIAN_POINT ( 'NONE',  ( -9.000000000000000000, 0.000000000000000000, 7.000000000000000000 ) ) ;
#83 = DIRECTION ( 'NONE',  ( -1.000000000000000000, 0.000000000000000000, 0.000000000000000000 ) ) ;
#84 = APPROVAL_DATE_TIME ( #57, #226 ) ;
#85 = APPLICATION_CONTEXT ( 'configuration controlled 3d designs of mechanical parts and assemblies' ) ;
#86 = EDGE_CURVE ( 'NONE', #243, #117, #294, .T. ) ;
#87 = FACE_OUTER_BOUND ( 'NONE', #244, .T. ) ;
#88 = ORIENTED_EDGE ( 'NONE', *, *, #289, .F. ) ;
#89 = DIRECTION ( 'NONE',  ( 1.000000000000000000, 0.000000000000000000, -0.000000000000000000 ) ) ;
#90 = VERTEX_POINT ( 'NONE', #272 ) ;
#91 = CARTESIAN_POINT ( 'NONE',  ( -6.200000000000001066, 7.592810154713590821E-16, 7.200000000000011724 ) ) ;
#92 = UNCERTAINTY_MEASURE_WITH_UNIT (LENGTH_MEASURE( 1.000000000000000082E-05 ), #35, 'distance_accuracy_value', 'NONE');
#93 = CARTESIAN_POINT ( 'NONE',  ( -6.200000000000001066, 7.592810154713590821E-16, 7.000000000000006217 ) ) ;
#94 = AXIS2_PLACEMENT_3D ( 'NONE', #230, #255, #21 ) ;
#95 = LOCAL_TIME ( 11, 47, 3.000000000000000000, #248 ) ;
#96 = AXIS2_PLACEMENT_3D ( 'NONE', #149, #249, #292 ) ;
#97 = CC_DESIGN_PERSON_AND_ORGANIZATION_ASSIGNMENT ( #2, #163, ( #282 ) ) ;
#98 = CALENDAR_DATE ( 2022, 7, 7 ) ;
#99 = EDGE_CURVE ( 'NONE', #90, #74, #126, .T. ) ;
#100 = SHAPE_DEFINITION_REPRESENTATION ( #181, #138 ) ;
#101 = ORIENTED_EDGE ( 'NONE', *, *, #86, .F. ) ;
#102 = VECTOR ( 'NONE', #193, 1000.000000000000000 ) ;
#103 = EDGE_LOOP ( 'NONE', ( #129, #8 ) ) ;
#104 = CARTESIAN_POINT ( 'NONE',  ( 0.000000000000000000, 0.000000000000000000, 7.200000000000011724 ) ) ;
#105 = PLANE ( 'NONE',  #299 ) ;
#106 = DATE_TIME_ROLE ( 'creation_date' ) ;
#107 = APPROVAL_ROLE ( '' ) ;
#108 = DIRECTION ( 'NONE',  ( 1.000000000000000000, 0.000000000000000000, 0.000000000000000000 ) ) ;
#109 = VERTEX_POINT ( 'NONE', #82 ) ;
#110 = CARTESIAN_POINT ( 'NONE',  ( 9.000000000000000000, 1.102182119232617714E-15, 7.000000000000000000 ) ) ;
#111 = EDGE_CURVE ( 'NONE', #243, #74, #305, .T. ) ;
#112 = VECTOR ( 'NONE', #300, 1000.000000000000000 ) ;
#113 = LINE ( 'NONE', #205, #80 ) ;
#114 = DIRECTION ( 'NONE',  ( 0.000000000000000000, 0.000000000000000000, 1.000000000000000000 ) ) ;
#115 = FACE_OUTER_BOUND ( 'NONE', #19, .T. ) ;
#116 = DIRECTION ( 'NONE',  ( -0.000000000000000000, -0.000000000000000000, -1.000000000000000000 ) ) ;
#117 = VERTEX_POINT ( 'NONE', #78 ) ;
#118 = CIRCLE ( 'NONE', #15, 9.000000000000000000 ) ;
#119 = ADVANCED_FACE ( 'NONE', ( #229 ), #256, .T. ) ;
#120 = APPROVAL_DATE_TIME ( #30, #69 ) ;
#121 = ORIENTED_EDGE ( 'NONE', *, *, #232, .F. ) ;
#122 = VERTEX_POINT ( 'NONE', #247 ) ;
#123 = ORIENTED_EDGE ( 'NONE', *, *, #13, .T. ) ;
#124 = CARTESIAN_POINT ( 'NONE',  ( 0.000000000000000000, 0.000000000000000000, 167.0000000000000000 ) ) ;
#125 = COORDINATED_UNIVERSAL_TIME_OFFSET ( 1, 0, .AHEAD. ) ;
#126 = CIRCLE ( 'NONE', #28, 6.200000000000001066 ) ;
#127 = PRODUCT_DEFINITION_FORMATION_WITH_SPECIFIED_SOURCE ( 'LIBOVOLNÝ', '', #235, .NOT_KNOWN. ) ;
#128 = CARTESIAN_POINT ( 'NONE',  ( 0.000000000000000000, 0.000000000000000000, 7.000000000000000000 ) ) ;
#129 = ORIENTED_EDGE ( 'NONE', *, *, #289, .T. ) ;
#130 = CARTESIAN_POINT ( 'NONE',  ( 0.000000000000000000, 0.000000000000000000, 7.000000000000000000 ) ) ;
#131 = VERTEX_POINT ( 'NONE', #65 ) ;
#132 = DIRECTION ( 'NONE',  ( 0.000000000000000000, 0.000000000000000000, 1.000000000000000000 ) ) ;
#133 = TOROIDAL_SURFACE ( 'NONE', #209, 6.200000000000001066, 0.2000000000000000111 ) ;
#134 = LOCAL_TIME ( 11, 47, 3.000000000000000000, #199 ) ;
#135 = DIRECTION ( 'NONE',  ( 1.000000000000000000, 0.000000000000000000, 0.000000000000000000 ) ) ;
#136 = DIRECTION ( 'NONE',  ( 0.000000000000000000, 0.000000000000000000, 1.000000000000000000 ) ) ;
#137 = DIRECTION ( 'NONE',  ( 1.000000000000000000, 0.000000000000000000, 0.000000000000000000 ) ) ;
#138 = ADVANCED_BREP_SHAPE_REPRESENTATION ( '011e', ( #48, #96 ), #7 ) ;
#139 = CIRCLE ( 'NONE', #214, 9.000000000000000000 ) ;
#140 = APPROVAL ( #212, 'NEURÈENÝ' ) ;
#141 = ORIENTED_EDGE ( 'NONE', *, *, #195, .F. ) ;
#142 = CIRCLE ( 'NONE', #16, 6.200000000000001066 ) ;
#143 = ORIENTED_EDGE ( 'NONE', *, *, #66, .T. ) ;
#144 = ADVANCED_FACE ( 'NONE', ( #202 ), #23, .T. ) ;
#145 = ORIENTED_EDGE ( 'NONE', *, *, #111, .F. ) ;
#146 = ORIENTED_EDGE ( 'NONE', *, *, #263, .T. ) ;
#147 = CARTESIAN_POINT ( 'NONE',  ( -6.000000000000000888, 0.000000000000000000, 7.200000000000011724 ) ) ;
#148 = PERSON_AND_ORGANIZATION ( #191, #175 ) ;
#149 = CARTESIAN_POINT ( 'NONE',  ( 0.000000000000000000, 0.000000000000000000, 0.000000000000000000 ) ) ;
#150 = APPROVAL_PERSON_ORGANIZATION ( #198, #69, #107 ) ;
#151 =( NAMED_UNIT ( * ) SI_UNIT ( $, .STERADIAN. ) SOLID_ANGLE_UNIT ( ) );
#152 = DIRECTION ( 'NONE',  ( -0.000000000000000000, -0.000000000000000000, -1.000000000000000000 ) ) ;
#153 = DIRECTION ( 'NONE',  ( 1.000000000000000000, 0.000000000000000000, -0.000000000000000000 ) ) ;
#154 = DIRECTION ( 'NONE',  ( 1.000000000000000000, 0.000000000000000000, 0.000000000000000000 ) ) ;
#155 = DIRECTION ( 'NONE',  ( 0.000000000000000000, 0.000000000000000000, 1.000000000000000000 ) ) ;
#156 = CARTESIAN_POINT ( 'NONE',  ( 0.000000000000000000, 0.000000000000000000, 167.0000000000000000 ) ) ;
#157 = DIRECTION ( 'NONE',  ( -1.000000000000000000, 1.224646799147353454E-16, 0.000000000000000000 ) ) ;
#158 = CLOSED_SHELL ( 'NONE', ( #245, #283, #55, #119, #250, #18, #307, #144, #1 ) ) ;
#159 = CARTESIAN_POINT ( 'NONE',  ( 0.000000000000000000, 0.000000000000000000, 0.000000000000000000 ) ) ;
#160 = CC_DESIGN_APPROVAL ( #226, ( #211 ) ) ;
#161 = CC_DESIGN_PERSON_AND_ORGANIZATION_ASSIGNMENT ( #164, #188, ( #127 ) ) ;
#162 = APPROVAL_ROLE ( '' ) ;
#163 = PERSON_AND_ORGANIZATION_ROLE ( 'classification_officer' ) ;
#164 = PERSON_AND_ORGANIZATION ( #191, #175 ) ;
#165 = ORIENTED_EDGE ( 'NONE', *, *, #37, .T. ) ;
#166 = AXIS2_PLACEMENT_3D ( 'NONE', #91, #254, #157 ) ;
#167 = ORIENTED_EDGE ( 'NONE', *, *, #66, .F. ) ;
#168 = CARTESIAN_POINT ( 'NONE',  ( 6.000000000000000888, 7.347880794884120722E-16, 167.0000000000000000 ) ) ;
#169 = APPROVAL_ROLE ( '' ) ;
#170 = LOCAL_TIME ( 11, 47, 3.000000000000000000, #72 ) ;
#171 = CARTESIAN_POINT ( 'NONE',  ( 0.000000000000000000, 0.000000000000000000, 7.000000000000000000 ) ) ;
#172 = PERSON_AND_ORGANIZATION_ROLE ( 'design_owner' ) ;
#173 = PRODUCT_RELATED_PRODUCT_CATEGORY ( 'detail', '', ( #235 ) ) ;
#174 = EDGE_LOOP ( 'NONE', ( #167, #29, #146, #76 ) ) ;
#175 = ORGANIZATION ( 'NEURÈENÝ', 'NEURÈENÝ', '' ) ;
#176 = ORIENTED_EDGE ( 'NONE', *, *, #189, .F. ) ;
#177 = CARTESIAN_POINT ( 'NONE',  ( 6.200000000000001066, 0.000000000000000000, 7.200000000000011724 ) ) ;
#178 = EDGE_LOOP ( 'NONE', ( #41, #276, #54, #304 ) ) ;
#179 = CARTESIAN_POINT ( 'NONE',  ( 6.000000000000000888, 7.347880794884120722E-16, 167.0000000000000000 ) ) ;
#180 = EDGE_LOOP ( 'NONE', ( #165, #143 ) ) ;
#181 = PRODUCT_DEFINITION_SHAPE ( 'NONE', 'NONE',  #211 ) ;
#182 = AXIS2_PLACEMENT_3D ( 'NONE', #26, #228, #64 ) ;
#183 = TOROIDAL_SURFACE ( 'NONE', #22, 6.200000000000001066, 0.2000000000000000111 ) ;
#184 = LOCAL_TIME ( 11, 47, 3.000000000000000000, #239 ) ;
#185 = CALENDAR_DATE ( 2022, 7, 7 ) ;
#186 = PERSON_AND_ORGANIZATION ( #191, #175 ) ;
#187 = ORIENTED_EDGE ( 'NONE', *, *, #281, .T. ) ;
#188 = PERSON_AND_ORGANIZATION_ROLE ( 'creator' ) ;
#189 = EDGE_CURVE ( 'NONE', #109, #131, #207, .T. ) ;
#190 = ORIENTED_EDGE ( 'NONE', *, *, #218, .F. ) ;
#191 = PERSON ( 'NEURÈENÝ', 'NEURÈENÝ', 'NEURÈENÝ', ('NEURÈENÝ'), ('NEURÈENÝ'), ('NEURÈENÝ') ) ;
#192 = ORIENTED_EDGE ( 'NONE', *, *, #189, .T. ) ;
#193 = DIRECTION ( 'NONE',  ( -0.000000000000000000, -0.000000000000000000, -1.000000000000000000 ) ) ;
#194 =( NAMED_UNIT ( * ) PLANE_ANGLE_UNIT ( ) SI_UNIT ( $, .RADIAN. ) );
#195 = EDGE_CURVE ( 'NONE', #208, #109, #31, .T. ) ;
#196 = DIRECTION ( 'NONE',  ( 0.000000000000000000, 0.000000000000000000, -1.000000000000000000 ) ) ;
#197 = AXIS2_PLACEMENT_3D ( 'NONE', #124, #252, #83 ) ;
#198 = PERSON_AND_ORGANIZATION ( #191, #175 ) ;
#199 = COORDINATED_UNIVERSAL_TIME_OFFSET ( 1, 0, .AHEAD. ) ;
#200 = DIRECTION ( 'NONE',  ( -0.000000000000000000, -0.000000000000000000, -1.000000000000000000 ) ) ;
#201 = CARTESIAN_POINT ( 'NONE',  ( 0.000000000000000000, 0.000000000000000000, 7.200000000000011724 ) ) ;
#202 = FACE_OUTER_BOUND ( 'NONE', #180, .T. ) ;
#203 = ORIENTED_EDGE ( 'NONE', *, *, #99, .T. ) ;
#204 = DIRECTION ( 'NONE',  ( 1.000000000000000000, 0.000000000000000000, 0.000000000000000000 ) ) ;
#206 = EDGE_CURVE ( 'NONE', #122, #131, #139, .T. ) ;
#205 = CARTESIAN_POINT ( 'NONE',  ( -6.000000000000000888, 0.000000000000000000, 167.0000000000000000 ) ) ;
#207 = LINE ( 'NONE', #56, #102 ) ;
#208 = VERTEX_POINT ( 'NONE', #42 ) ;
#209 = AXIS2_PLACEMENT_3D ( 'NONE', #201, #274, #108 ) ;
#210 = AXIS2_PLACEMENT_3D ( 'NONE', #177, #20, #196 ) ;
#211 = PRODUCT_DEFINITION ( 'NEZNÁMÝ', '', #127, #278 ) ;
#212 = APPROVAL_STATUS ( 'not_yet_approved' ) ;
#213 = CIRCLE ( 'NONE', #94, 6.000000000000000888 ) ;
#214 = AXIS2_PLACEMENT_3D ( 'NONE', #259, #132, #33 ) ;
#215 = SECURITY_CLASSIFICATION_LEVEL ( 'unclassified' ) ;
#216 = VERTEX_POINT ( 'NONE', #168 ) ;
#217 = DATE_TIME_ROLE ( 'classification_date' ) ;
#218 = EDGE_CURVE ( 'NONE', #208, #122, #293, .T. ) ;
#219 = EDGE_LOOP ( 'NONE', ( #101, #233, #240, #121 ) ) ;
#220 = FACE_OUTER_BOUND ( 'NONE', #219, .T. ) ;
#221 = FACE_BOUND ( 'NONE', #49, .T. ) ;
#222 = DIRECTION ( 'NONE',  ( 1.000000000000000000, 0.000000000000000000, 0.000000000000000000 ) ) ;
#223 = CALENDAR_DATE ( 2022, 7, 7 ) ;
#224 = AXIS2_PLACEMENT_3D ( 'NONE', #46, #297, #137 ) ;
#225 = LOCAL_TIME ( 11, 47, 3.000000000000000000, #125 ) ;
#226 = APPROVAL ( #79, 'NEURÈENÝ' ) ;
#227 = CYLINDRICAL_SURFACE ( 'NONE', #251, 6.000000000000000888 ) ;
#228 = DIRECTION ( 'NONE',  ( 0.000000000000000000, 0.000000000000000000, 1.000000000000000000 ) ) ;
#229 = FACE_OUTER_BOUND ( 'NONE', #5, .T. ) ;
#230 = CARTESIAN_POINT ( 'NONE',  ( 0.000000000000000000, 0.000000000000000000, 167.0000000000000000 ) ) ;
#231 = DIRECTION ( 'NONE',  ( -0.000000000000000000, -0.000000000000000000, -1.000000000000000000 ) ) ;
#232 = EDGE_CURVE ( 'NONE', #117, #90, #4, .T. ) ;
#233 = ORIENTED_EDGE ( 'NONE', *, *, #111, .T. ) ;
#234 = FACE_OUTER_BOUND ( 'NONE', #174, .T. ) ;
#235 = PRODUCT ( '011e', '011e', '', ( #268 ) ) ;
#236 = ORIENTED_EDGE ( 'NONE', *, *, #13, .F. ) ;
#237 = CC_DESIGN_DATE_AND_TIME_ASSIGNMENT ( #14, #106, ( #211 ) ) ;
#238 = AXIS2_PLACEMENT_3D ( 'NONE', #130, #63, #275 ) ;
#239 = COORDINATED_UNIVERSAL_TIME_OFFSET ( 1, 0, .AHEAD. ) ;
#240 = ORIENTED_EDGE ( 'NONE', *, *, #99, .F. ) ;
#241 = CC_DESIGN_PERSON_AND_ORGANIZATION_ASSIGNMENT ( #148, #17, ( #211 ) ) ;
#242 = AXIS2_PLACEMENT_3D ( 'NONE', #128, #58, #222 ) ;
#243 = VERTEX_POINT ( 'NONE', #147 ) ;
#244 = EDGE_LOOP ( 'NONE', ( #145, #39, #265, #285 ) ) ;
#245 = ADVANCED_FACE ( 'NONE', ( #220 ), #183, .F. ) ;
#246 = VECTOR ( 'NONE', #231, 1000.000000000000000 ) ;
#247 = CARTESIAN_POINT ( 'NONE',  ( 9.000000000000000000, 1.102182119232617714E-15, 0.000000000000000000 ) ) ;
#248 = COORDINATED_UNIVERSAL_TIME_OFFSET ( 1, 0, .AHEAD. ) ;
#249 = DIRECTION ( 'NONE',  ( 0.000000000000000000, 0.000000000000000000, 1.000000000000000000 ) ) ;
#250 = ADVANCED_FACE ( 'NONE', ( #221, #266 ), #105, .T. ) ;
#251 = AXIS2_PLACEMENT_3D ( 'NONE', #34, #12, #270 ) ;
#252 = DIRECTION ( 'NONE',  ( -0.000000000000000000, -0.000000000000000000, -1.000000000000000000 ) ) ;
#253 = DIRECTION ( 'NONE',  ( 1.000000000000000000, 0.000000000000000000, 0.000000000000000000 ) ) ;
#254 = DIRECTION ( 'NONE',  ( 1.224646799147353207E-16, 1.000000000000000000, -0.000000000000000000 ) ) ;
#255 = DIRECTION ( 'NONE',  ( 0.000000000000000000, 0.000000000000000000, 1.000000000000000000 ) ) ;
#256 = CYLINDRICAL_SURFACE ( 'NONE', #238, 9.000000000000000000 ) ;
#257 = EDGE_CURVE ( 'NONE', #216, #117, #40, .T. ) ;
#258 = CARTESIAN_POINT ( 'NONE',  ( 0.000000000000000000, 0.000000000000000000, 7.000000000000000000 ) ) ;
#259 = CARTESIAN_POINT ( 'NONE',  ( 0.000000000000000000, 0.000000000000000000, 0.000000000000000000 ) ) ;
#260 = APPROVAL_PERSON_ORGANIZATION ( #36, #226, #169 ) ;
#261 = PLANE ( 'NONE',  #182 ) ;
#262 = AXIS2_PLACEMENT_3D ( 'NONE', #25, #291, #61 ) ;
#263 = EDGE_CURVE ( 'NONE', #117, #243, #68, .T. ) ;
#264 = CALENDAR_DATE ( 2022, 7, 7 ) ;
#265 = ORIENTED_EDGE ( 'NONE', *, *, #232, .T. ) ;
#266 = FACE_OUTER_BOUND ( 'NONE', #103, .T. ) ;
#267 = CALENDAR_DATE ( 2022, 7, 7 ) ;
#268 = MECHANICAL_CONTEXT ( 'NONE', #280, 'mechanical' ) ;
#269 = CC_DESIGN_PERSON_AND_ORGANIZATION_ASSIGNMENT ( #186, #286, ( #127 ) ) ;
#270 = DIRECTION ( 'NONE',  ( -1.000000000000000000, 0.000000000000000000, 0.000000000000000000 ) ) ;
#271 = PERSON_AND_ORGANIZATION ( #191, #175 ) ;
#272 = CARTESIAN_POINT ( 'NONE',  ( 6.200000000000001066, 0.000000000000000000, 7.000000000000006217 ) ) ;
#273 = CARTESIAN_POINT ( 'NONE',  ( 0.000000000000000000, 0.000000000000000000, 167.0000000000000000 ) ) ;
#274 = DIRECTION ( 'NONE',  ( 0.000000000000000000, 0.000000000000000000, 1.000000000000000000 ) ) ;
#275 = DIRECTION ( 'NONE',  ( -1.000000000000000000, 0.000000000000000000, 0.000000000000000000 ) ) ;
#276 = ORIENTED_EDGE ( 'NONE', *, *, #37, .F. ) ;
#277 = CARTESIAN_POINT ( 'NONE',  ( 0.000000000000000000, 0.000000000000000000, 7.200000000000011724 ) ) ;
#278 = DESIGN_CONTEXT ( 'detailed design', #85, 'design' ) ;
#279 = ORIENTED_EDGE ( 'NONE', *, *, #218, .T. ) ;
#280 = APPLICATION_CONTEXT ( 'configuration controlled 3d designs of mechanical parts and assemblies' ) ;
#281 = EDGE_CURVE ( 'NONE', #74, #90, #142, .T. ) ;
#282 = SECURITY_CLASSIFICATION ( '', '', #215 ) ;
#283 = ADVANCED_FACE ( 'NONE', ( #234 ), #59, .T. ) ;
#284 = PERSON_AND_ORGANIZATION ( #191, #175 ) ;
#285 = ORIENTED_EDGE ( 'NONE', *, *, #281, .F. ) ;
#286 = PERSON_AND_ORGANIZATION_ROLE ( 'design_supplier' ) ;
#287 = DATE_AND_TIME ( #185, #170 ) ;
#288 = AXIS2_PLACEMENT_3D ( 'NONE', #156, #62, #154 ) ;
#289 = EDGE_CURVE ( 'NONE', #109, #208, #81, .T. ) ;
#290 = ORIENTED_EDGE ( 'NONE', *, *, #206, .F. ) ;
#291 = DIRECTION ( 'NONE',  ( 0.000000000000000000, 0.000000000000000000, 1.000000000000000000 ) ) ;
#292 = DIRECTION ( 'NONE',  ( 1.000000000000000000, 0.000000000000000000, 0.000000000000000000 ) ) ;
#293 = LINE ( 'NONE', #110, #246 ) ;
#294 = CIRCLE ( 'NONE', #224, 6.000000000000000888 ) ;
#295 = APPROVAL_STATUS ( 'not_yet_approved' ) ;
#296 = APPLICATION_PROTOCOL_DEFINITION ( 'international standard', 'config_control_design', 1994, #85 ) ;
#297 = DIRECTION ( 'NONE',  ( 0.000000000000000000, 0.000000000000000000, 1.000000000000000000 ) ) ;
#298 = FACE_OUTER_BOUND ( 'NONE', #6, .T. ) ;
#299 = AXIS2_PLACEMENT_3D ( 'NONE', #171, #9, #153 ) ;
#300 = DIRECTION ( 'NONE',  ( -0.000000000000000000, -0.000000000000000000, -1.000000000000000000 ) ) ;
#301 = DIRECTION ( 'NONE',  ( 0.000000000000000000, 0.000000000000000000, 1.000000000000000000 ) ) ;
#302 = CARTESIAN_POINT ( 'NONE',  ( 0.000000000000000000, 0.000000000000000000, 7.000000000000000000 ) ) ;
#303 = DIRECTION ( 'NONE',  ( -0.000000000000000000, -0.000000000000000000, -1.000000000000000000 ) ) ;
#304 = ORIENTED_EDGE ( 'NONE', *, *, #86, .T. ) ;
#305 = CIRCLE ( 'NONE', #166, 0.1999999999999996503 ) ;
#306 = CC_DESIGN_APPROVAL ( #69, ( #127 ) ) ;
#307 = ADVANCED_FACE ( 'NONE', ( #38 ), #227, .T. ) ;
ENDSEC;
END-ISO-10303-21;
